» » »

Primus, D M V Bass tabs (ver.4)

Artists:  A B C D E F G H I J K L M N O P Q R S T U V W X Y Z # 

D M V Bass tabs (ver.4)

Primus Tabs
 Rating:
4.5/5 (8 votes)
D M V lessons Tabs too difficult? Try these video lessons and learn fast
1
                (Intro)
 This is tabbed for a 6 string because that is what I play however, it is done just the 
on a 5 string. Anyone using a 4 string who is far enough along in playing to tap these 
out should have no trouble in swapping the low-B notes to placement on the E.

 It has been a while since I tabbed anything, so I hope I remembered everything and made 
understandable for everyone. Note spacing may be off by a smidge, but if you start 
you will easily see where it all goes. This is tabbed according to how I learned
the song years ago with the help of some tab I had in a magazine at the time. Sorry I don't remember 
magazine or when, but it was not long after the song came out.

 The intro is as follows, minus the effects Claypool so dearly loves but which are not 
for this song.

 Everything in the first section is hammered on the low-B with the index or middle 
and all other notes are right hand taps, assuming you are right handed.

--------------------------------------------|
-------------------19-------------18-18-----|
-------18-------------18---------17-17------|
-----------17-------------17----------------|
--------------------------------------------|
---15--------15--------------15-------------|


----------------------------------------------------|
------------------19------------18-18---------18-18-|
------18-------------18---------17-17---------17-17-|
----------17-------------17-------------------------|
----------------------------------------------------|
--15--------15--------------15---------15\14--------|

 During the verse (below) it is essentially the same thing, with only the low note 

-------------------------------------------|
------------------19-------------18-18-----|
-------18-------------18---------17-17-----|
-----------17-------------17---------------|
-------------------------------------------|
----3---------3---------------3------------|


-----------------------------------------------------|
------------------19-------------18-18---------18-18-|
-------18-------------18---------17-17---------17-17-|
----------17-------------17--------------------------|
-----------------------------------------------------|
----3--------3---------------3-------------3---------|


 Once you get it down, it is a pretty simple little run, fun to play and great for 
your friends, especially Primus fans. It looks tough when played, but really isn't all that 
unless you have a really high action or under-developed tapping strength.

 I will try to get the rest of the song tabbed out and add it later, but this should 
you something to work with, and the rest is really easy to figure out just using most of 
notes here.
            
Submit corrections

comments powered by Disqus
↑ Back to top | Primus Bass for D M V. Lyrics for acoustic guitar and electric guitar. 1 Tablatures and chords are parodies/interpretations of the original songs. You may use it for private study, scholarship, research or language learning purposes only