>
 >
D M V

D M V Bass Tabs

Primus - D M V chords, tabs, tablatures, lyrics

Guitar lessons | Add/correct | Request | Top 50 tabs Artists:  A B C D E F G H I J K L M N O P Q R S T U V W X Y Z 0-9

D M V Bass Tabs – Primus

CD, Sheet music, Poster

Do you like D M V? Share with your friends now
Bass TabsBass Tabs v2
Les uses his six string bass son this song, I have the video it is awesome!!!!                                         
The way to play the song is hamerons and tapping. If you don.t have a 6-string 
then hamerons the 10th fret of your E string instead of 15 on the B string, at 
the end where he does the tapping sliding variations, it sounds ok without using 
the C string, I don.t have  6 string yet so that.s what I do
 
Intro
  
C|--------------------------------|--------------------------------|
G|--------19------18--18----------|--------19--------------1818--18|
D|--18------18--------------------|--18------18----18--18--1717--17|
A|----17------17------------------|----17------17------------------|    
E|--------------------------------|------------------------1615----|      
B|15----15------15----------------|15----15------15----------------|      
 
C|--------------------------------|--------------------------------|
G|--------19------18--18----------|--------19----------------------|    
D|--18------18--------------------|--18------18----18--18--18------|    
A|----17------17------------------|----17------17------------------|    
E|--------------------------------|--------------------------------|
B|15----15------15----------------|15----15------15--------15\-----|      
 
C|--------------------------------|--------------------------------|
G|--------19------18--18------18--|--------19------18--18----------|
D|--18------18--------------------|--18------18--------------------|    
A|----17------17------------------|----17------17------------------|
E|--------------------------------|--------------------------------|
B|3-----3-------3-----------------|3-----3-------3-----------------|
     
C|--------------------------------|--------------------------------|
G|--------19------18--18----18--18|--------19------18--------------|
D|--18------18--------------17--17|--18------18--------------------|
A|----17------17------------------|----17------17------------------|
E|----------------------------3---|--------------------------------|
B|3-----3-------3-----------------|3-----3-------3-----10/ 19\-----|
 
1st verse (Main thing, he does little variations you can figure out)
C|--------------------------------|--------------------------------|
G|--------19------18--18------18--|--------19------18--------------|
D|--18------18--------------------|--18------18--------------------|    
A|----17------17------------------|----17------17------------------|
E|--------------------------------|--------------------------------|
B|15----15------15----------------|15----15------15----------------|      
 
This is where he says .Pointless.
C|--------------------------------|--------------------------------|
G|--------18--18----------18--18--|--------18--18----------18--18--|
D|--------17--17----------17--17--|--------17--17----------17--17--|
A|--------10--10----------10--10\-|--------10--10----------10--10--|
E|--------------------------------|--------------------------------|
B|--------------------------------|--------------------------------|
 
 
C|--------------------------------|--------------------------------|
G|--------18--X-X-18--X-18--------|X-X-X-18--------X-X-X-18--------|
D|--------17--X-X-17--X-17--------|X-X-X-17--------X-X-X-17--------|
A|--------10--------------10--11\-|--------10--11\-----------------|
E|--------------------------------|--------------------------------|
B|--------------------------------|------------------------15\-----|
 
Play this 2 times before the second verse, then after he starts singing play it 5 times
C|--------------------------------|--------------------------------|
G|--------19------18--18----------|--------19------18--18----------|
D|--18------18--------------------|--18------18--------------------|
A|----17------17------------------|----17------17------------------|  
E|--------------------------------|--------------------------------|
B|15----15------15----------------|15----15------15----------------|
 
.Pointless.
C|--------------------------------|--------------------------------|
G|--------18--18----------18--18--|--------18--18----------18--18--|
D|--------17--17----------17--17--|--------17--17----------17--17--|
A|--------10--10----------10--10\-|--------10--10----------10--10--|
E|--------------------------------|--------------------------------|
B|--------------------------------|--------------------------------|
 
C|--------------------------------|--------------------------------|
G|--------18--X-X-18--X-18--------|X-X-X-18--------X-X-X-18--------|
D|--------17--X-X-17--X-17--------|X-X-X-17--------X-X-X-17--------|
A|--------10--------------10--11\-|--------10--11\-----------------|
E|--------------------------------|--------------------------------|
B|--------------------------------|------------------------15\-----|
 
C|--------------------------------|--------------------------------|
G|--------18--18----------18--18--|--------18--18----------18--18--|<-T3
D|--------17--17----------17--17--|--------17--17----------17--17--|<-T2
A|--------10--10----------10--10\-|--------10--10----------10--10--|<-left
E|--------------------------------|--------------------------------|
B|--------------------------------|--------------------------------|
 
C|--------------------------------|--------------------------------|
G|X-X-X-18--------X-X-X-18--------|X-X-X-18--------X-X-X-18--------|
D|X-X-X-17--------X-X-X-17--------|X-X-X-17--------X-X-X-17--------|
A|--------------------------------|--------------------------------|      
E|--------3---3-----------3-------|--------3---3-----------3-------|
B|----------------------------3---|----------------------------3---|
 
C|--------------------------------|--------------------------------|
G|X-X-X-18--------X-X-X-18--------|17171717--------171717----------|
D|X-X-X-17--------X-X-X-17--------|16161616--------161616----------|
A|--------------------------------|--------------------------------|      
E|--------3---------------3-------|--------3-----------------------|
B|------------3---------------3---|------------3-----------9\------|
 
 
 
 
 
  
With all the X.s, just mute the stings and either flamenco style pick it or just smack it. The stuff on the B string can be played on the E string. It just doesn.t sound as good
  V                       V ^ V ^  V
C|X-----------------------X-X-X-X-|X-------------------------------|
G|X-----------------------X-X-X-X-|X-------------------------------|    
D|X-----------------------X-X-X-X-|X-------------------------------|    
A|X-----------------------X-X-X-X-|X-------------------------------|      
E|X-----------------------X-X-X-X-|X-------------------------------|      
B|X-------3-----0h1---3---X-X-X-X-|X-------3-----0h3---------------|      
 
  V   ^ V                 V ^ V    V ^     V   V ^ V   V   ^ V ^
C|X---X-X-----------------X-X-X---|X-X-----X---X-X-X---X---X-X-X---|
G|X---X-X-----------------X-X-X---|X-X-----X---X-X-X---X---X-X-X---|    
D|X---X-X-----------------X-X-X---|X-X-----X---X-X-X---X---X-X-X---|    
A|X---X-X-----------------X-X-X---|X-X-----X---X-X-X---X---X-X-X---|      
E|X---X-X-----------------X-X-X---|X-X-----X---X-X-X---X---X-X-X---|      
B|X---X-X-3-----0h3---3---X-X-X---|X-X-----X---X-X-X---X---X-X-X---|      
 
Play this 5 times before he starts singing 
C|--------------------------------|--------------------------------|
G|--------19------18--18------18--|--------19------18--------------|
D|--18------18--------------------|--18------18--------------------|
A|----17------17------------------|----17------17------------------|
E|--------------------------------|--------------------------------|
B|15----15------15----------------|15----15------15----------------|
 
3rd verse is where everything is kind of quiet for a while
Play this 4 times tapping the X.s and hammering the 3.s
C|--------------------------------|--------------------------------|
G|X-X-X-----X-X---X---X-------X---|X-X-X-----X-X---X-----------X---|
D|--------------------------------|--------------------------------|    
A|--------------------------------|--------------------------------|    
E|--------------------------------|--------------------------------|
B|3-------------3-----------------|3-------------3-----------------|
 
 
C|--------------------------------|--------------------------------|
G|--------18--18----------18--18--|--------18--18----------18--18--|
D|--------17--17----------17--17--|--------17--17----------17--17--|
A|--------10--10--10h-11------10\-|--------10--10--X---X---10--10--|
E|--------------------------------|--------------------------------|
B|--------------------------------|--------------------------------|
 
C|--------------------------------|--------------------------------|
G|--------18--X-X-18--X-18--------|X-X-X-18--------X-X-X-18--------|
D|--------17--X-X-17--X-17--------|X-X-X-17--------X-X-X-17--------|
A|--------10--------------10--11\-|--------10--11\-----------------|
E|--------------------------------|--------------------------------|
B|--------------------------------|------------------------15\-----|
 
C|--------------------------------|--------------------------------|
G|X-X-X-18--------X-X-X-18--------|X-X-X-18--------X-X-X-18--------|
D|X-X-X-17--------X-X-X-17--------|X-X-X-17--------X-X-X-17--------|
A|--------------------------------|--------------------------------|      
E|--------3---3-----------3-------|--------3---3-----------3-------|
B|----------------------------3---|----------------------------3---|
 
C|--------------------------------|--------------------------------|
G|18X-X-18--------X-X-X-18--------|17X-17X---------171717----------|
D|--X-X-17--------X-X-X-17--------|16X-16X---------161616----------|
A|--------------------------------|--------------------------------|      
E|--------3---------------3-------|--------3-----------------------|
B|------------3---------------3---|------------3-----------9/15\---|
 
Play this 6 times before he starts singing with minor variations
C|--------------------------------|--------------------------------|
G|--------19------18--18------18--|--------19------18--------------|
D|--18------18--------------------|--18------18--------------------|
A|----17------17------------------|----17------17------------------|
E|--------------------------------|--------------------------------|
B|15----15------15----------------|15----15------15----------------|
 
4th verse . Play this 4 times
C|--------------------------------|--------------------------------|
G|--------19------18--18------18--|--------19------18--------------|
D|--18------18--------------------|--18------18--------------------|
A|----17------17------------------|----17------17------------------|
E|--------------------------------|--------------------------------|
B|15----15------15----------------|15----15------15----------------|
 
C|--------------------------------|--------------------------------|
G|--------18--18----------18--18--|--------18--18----------18--18--|
D|--------17--17----------17--17--|--------17--17----------17--17--|
A|--------10--10----------10--10\-|--------10--10----------10--10--|
E|--------------------------------|--------------------------------|
B|--------------------------------|--------------------------------|
 
C|--------------------------------|--------------------------------|
G|--------18--X-X-18--X-18--------|X-X-X-18--------X-X-X-18--------|
D|--------17--X-X-17--X-17--------|X-X-X-17--------X-X-X-17--------|
A|--------10--------------10--11\-|--------10--11\-----------------|
E|--------------------------------|--------------------------------|
B|--------------------------------|------------------------15\-----|
 
C|--------------------------------|--------------------------------|
G|X-X-X-18--------X-X-X-18--------|X-X-X-18--------X-X-X-18--------|
D|X-X-X-17--------X-X-X-17--------|X-X-X-17--------X-X-X-17--------|
A|--------------------------------|--------------------------------|      
E|--------3---3-----------3-------|--------3---3-----------3-------|
B|----------------------------3---|----------------------------3---|
 
C|--------------------------------|--------------------------------|
G|X-X-X-18--------X-X-X-18--------|17171717--------171717----------|
D|X-X-X-17--------X-X-X-17--------|16161616--------161616----------|
A|--------------------------------|--------------------------------|      
E|--------3---------------3-------|--------3-----------------------|
B|------------3---------------3---|------------3-----------9\------|
 
 
 
 
 
 
Now comes all that cool stuff, on the video it shows all of this close up so I got all of it down
C|----X---8/9-----8---8/9-----8---|----X---8/9---X-8---8---9/11/13-|
G|-----X--8/9-----8---8/9-----8---|-----X--8/9---X-8---8---9/11/13-|
D|------X-8/9-----8---8/9-----8---|------X-8/9---X-8---8---9/11/13-|
A|--------------------------------|--------------------------------|  
E|--------------------------------|--------------------------------|      
B|5-------------X-----------X-----|5-------------------------------|
 
C|----X---8/9-----8---8/9-----8---|----X---8/9---X-----------------|
G|-----X--8/9-----8---8/9-----8---|-----X--8/9---X-----------------|
D|------X-8/9-----8---8/9-----8---|------X-8/9---X---------X-X-X---|
A|--------------------------------|------------------------X-X-X---|  
E|--------------------------------|--------------------19\---------|      
B|5-------------X-----------X-----|5---------------1/--------------|
 
C|----X---8/9-----8---8/9-----8---|----X---8/9-----1011----14/-----|
G|-----X--8/9-----8---8/9-----8---|-----X--8/9-----1011----14/-----|
D|------X-8/9-----8---8/9-----8---|------X-8/9-----1011----14/-----|
A|--------------------------------|--------------------------------|  
E|--------------------------------|--------------------------------|      
B|5-------------X-----------X-----|5-------------X-----------------|
 
C|----X---8/9-----8---8/9-----8---|----X---8/9---X-8---------------|
G|-----X--8/9-----8---8/9-----8---|-----X--8/9---X-8---------------|
D|------X-8/9-----8---8/9-----8---|------X-8/9---X-8---------------|
A|--------------------------------|--------------------------------|  
E|--------------------------------|--------------------------------|      
B|5-------------X-----------X-----|5-------------------5-----5-5---|
 
C|----X---8/9-----8---8/9-----8---|----X---8/9---X-8---8---9/11/13-|
G|-----X--8/9-----8---8/9-----8---|-----X--8/9---X-8---8---9/11/13-|
D|------X-8/9-----8---8/9-----8---|------X-8/9---X-8---8---9/11/13-|
A|--------------------------------|--------------------------------|  
E|--------------------------------|--------------------------------|      
B|5-------------X-----------X-----|5-------------------------------|
 
C|----X---8/9-----8---8/9-----8---|----X---8/9---X-----------------|
G|-----X--8/9-----8---8/9-----8---|-----X--8/9---X-----------------|
D|------X-8/9-----8---8/9-----8---|------X-8/9---X---------X-X-X---|
A|--------------------------------|------------------------X-X-X---|  
E|--------------------------------|--------------------19\---------|      
B|5-------------X-----------X-----|5---------------1/--------------|
 
C|----X---8/9-----8---8/9-----8---|----X---8/9-----1011----14/-----|
G|-----X--8/9-----8---8/9-----8---|-----X--8/9-----1011----14/-----|
D|------X-8/9-----8---8/9-----8---|------X-8/9-----1011----14/-----|
A|--------------------------------|--------------------------------|  
E|--------------------------------|--------------------------------|     
B|5-------------X-----------X-----|5-------------X-----------------|
 
C|----X---8/9-----8---8/9-----8---|----X---8/9---X-8---------------|
G|-----X--8/9-----8---8/9-----8---|-----X--8/9---X-8---------------|
D|------X-8/9-----8---8/9-----8---|------X-8/9---X-8---------------|
A|--------------------------------|--------------------------------|  
E|--------------------------------|--------------------------------|      
B|5-------------X-----------X-----|5-------------------5-----5p0---|
C|----X-X-1314--X-13--1314--X-13--|----X-X-13----1313--13--1316----|
G|----X-X-1314--X-13--1314--X-13--|----X-X-13----1313--13--1316----|
D|--------7/8-----7---7/8-----7---|--------7-----7-7---7---7/12----|
A|--------------------------------|--------------------------------|      
E|--------------------------------|--------------------------------|      
B|5-------------------------------|5-----------------------------5-|
 
C|----X-X-1314--X-13--1314--X-13--|----X-X-1314--X-14--14/-1818--17|
G|----X-X-1314--X-13--1314--X-13--|----X-X-1314--X-14--14/-1818--17|
D|--------7/8-----7---7/8-----7---|--------7/8---X-8---8/--1212--11|
A|--------------------------------|--------------------------------|      
E|--------------------------------|--------------------------------|      
B|5-------------------------------|5-------------------------------|
 
C|----X---8/9-----8---8/9-----8---|----X---8/9---X-8---8---9/11/13-|
G|-----X--8/9-----8---8/9-----8---|-----X--8/9---X-8---8---9/11/13-|
D|------X-8/9-----8---8/9-----8---|------X-8/9---X-8---8---9/11/13-|
A|--------------------------------|--------------------------------|  
E|--------------------------------|--------------------------------|      
B|5-------------X-----------X-----|5-------------------------------|
 
C|----X---8/9-----8---8/9-----8---|----X---8/9---X-----------------|
G|-----X--8/9-----8---8/9-----8---|-----X--8/9---X-----------------|
D|------X-8/9-----8---8/9-----8---|------X-8/9---X---------X-X-X---|
A|--------------------------------|------------------------X-X-X---|  
E|--------------------------------|--------------------19\---------|      
B|5-------------X-----------X-----|5---------------1/--------------|
 
C|----X---8/9-----8---8/9-----8---|----X---8/9-----1011----14/-----|
G|-----X--8/9-----8---8/9-----8---|-----X--8/9-----1011----14/-----|
D|------X-8/9-----8---8/9-----8---|------X-8/9-----1011----14/-----|
A|--------------------------------|--------------------------------|  
E|--------------------------------|--------------------------------|      
B|5-------------X-----------X-----|5-------------X-----------------|
 
C|----X---8/9-----8---8/9-----8---|----X---8/9---X-8---------------|
G|-----X--8/9-----8---8/9-----8---|-----X--8/9---X-8---------------|
D|------X-8/9-----8---8/9-----8---|------X-8/9---X-8---------------|
A|--------------------------------|--------------------------------|  
E|--------------------------------|--------------------------------|      
B|5-------------X-----------X-----|5-------------------5-----5-5---|
 
C|----X-X-1314--X-13--1314--X-13--|----X-X-13----1313--13--1316----|
G|----X-X-1314--X-13--1314--X-13--|----X-X-13----1313--13--1316----|
D|--------7/8-----7---7/8-----7---|--------7-----7-7---7---7/12----|
A|--------------------------------|--------------------------------|      
E|--------------------------------|--------------------------------|      
B|5-------------------------------|5-----------------------------5-|
 
C|----X-X-1314--X-13--1314--X-13--|----X-X-1314--X-14--14/-1818/---|
G|----X-X-1314--X-13--1314--X-13--|----X-X-1314--X-14--14/-1818/---|
D|--------7/8-----7---7/8-----7---|--------7/8---X-8---8/--1212/---|
A|--------------------------------|--------------------------------|      
E|--------------------------------|--------------------------------|      
B|5-------------------------------|5-------------------------------|
 
 
C|----X---8/9-----8---8/9-----8---|----X---8/9---X-8---8---9/11/13-|
G|-----X--8/9-----8---8/9-----8---|-----X--8/9---X-8---8---9/11/13-|
D|------X-8/9-----8---8/9-----8---|------X-8/9---X-8---8---9/11/13-|
A|--------------------------------|--------------------------------|  
E|--------------------------------|--------------------------------|      
B|5-------------X-----------X-----|5-------------------------------|
 
C|----X---8/9-----8---8/9-----8---|----X---8/9---X-----------------|
G|-----X--8/9-----8---8/9-----8---|-----X--8/9---X-----------------|
D|------X-8/9-----8---8/9-----8---|------X-8/9---X---------X-X-X---|
A|--------------------------------|------------------------X-X-X---|  
E|--------------------------------|--------------------19\---------|      
B|5-------------X-----------X-----|5---------------1/--------------|
 
C|----X---8/9-----8---8/9-----8---|----X---8/9-----1011----14/-----|
G|-----X--8/9-----8---8/9-----8---|-----X--8/9-----1011----14/-----|
D|------X-8/9-----8---8/9-----8---|------X-8/9-----1011----14/-----|
A|--------------------------------|--------------------------------|  
E|--------------------------------|--------------------------------|      
B|5-------------X-----------X-----|5-------------X-----------------|
 
C|----X---8/9-----8---8/9-----8---|----X---8/9---X-8---------------|
G|-----X--8/9-----8---8/9-----8---|-----X--8/9---X-8---------------|
D|------X-8/9-----8---8/9-----8---|------X-8/9---X-8---------------|
A|--------------------------------|--------------------------------|  
E|--------------------------------|--------------------------------|     
B|5-------------X-----------X-----|5-------------------5-----5-5---|
 
C|----X---8/9-----8---8/9-----8---|----X---8/9---X-8---8---9/11/13-|
G|-----X--8/9-----8---8/9-----8---|-----X--8/9---X-8---8---9/11/13-|
D|------X-8/9-----8---8/9-----8---|------X-8/9---X-8---8---9/11/13-|
A|--------------------------------|--------------------------------|  
E|--------------------------------|--------------------------------|      
B|5-------------X-----------X-----|5-------------------------------|
 
C|----X---8/9-----8---8/9-----8---|----X---8/9---X-----------------|
G|-----X--8/9-----8---8/9-----8---|-----X--8/9---X-----------------|
D|------X-8/9-----8---8/9-----8---|------X-8/9---X---------X-X-X---|
A|--------------------------------|------------------------X-X-X---|  
E|--------------------------------|--------------------19\---------|      
B|5-------------X-----------X-----|5---------------1/--------------|
 
C|----X---8/9-----8---8/9-----8---|----X---8/9-----1011----14/-----|
G|-----X--8/9-----8---8/9-----8---|-----X--8/9-----1011----14/-----|
D|------X-8/9-----8---8/9-----8---|------X-8/9-----1011----14/-----|
A|--------------------------------|--------------------------------|  
E|--------------------------------|--------------------------------|      
B|5-------------X-----------X-----|5-------------X-----------------|
 
C|----X---8/9-----8---8/9-----8---|----X---8/9---X-8---------------|
G|-----X--8/9-----8---8/9-----8---|-----X--8/9---X-8---------------|
D|------X-8/9-----8---8/9-----8---|------X-8/9---X-8---------------|
A|--------------------------------|--------------------------------|  
E|--------------------------------|--------------------------------|      
B|5-------------X-----------X-----|5-------------------5-----5-5---|
Fade out.
Its all there, it took me a long time to tab it out, so go watch the video, 
you can download it from kazaa if you have that, its truly awesome. Just go 
through the main riff and mess around and do some variations, that.s what 
les does. Have fun!





Comments


Popular Primus tabs & chords
Jerry Was A Race Car Driver 5 Bass Tabs
Kalamazoo 1 Bass Tabs
Last Superpower Aka Rapscallion Bass Tabs
Master Of Puppets 6 Bass Tabs
My Name Is Mud 4 Bass Tabs
Power Mad Bass Tabs
Silly Putty 1 Bass Tabs
The Carpenter And The Dainty Bride 1 Bass Tabs
My Name Is Mud Drum Tabs
Coattails Of A Dead Man Tabs


Song lyrics



↑ Back to top | Tablatures and chords are parodies/interpretations of the original songs. You may use it for private study, scholarship, research or language learning purposes only
© 2014 AZChords.com Contact us | Privacy policy | DMCA | Add/correct tabs | Request tabs | Top 50 tabs