» » »

Anti Pop Tabs (ver.3)

Artists:  A B C D E F G H I J K L M N O P Q R S T U V W X Y Z # 

Anti Pop Tabs (ver.3)

Primus
Rating:
0/5 (0 votes)

Hard to play? Try these video lessons and learn fast.
                hey everyone, one day at band practice my bass player started playing this song and he told me to learn it cause my drummer also knew it, and i'm too lazy to figure it out so i checked mxtabs and it wasn't there... Well i took the time to learn it and i'm pretty sure this is how it goes...

This is my first tab! The timing is far from perfect but my goal was to get the right notes, cause anyone can find the timing out on the cd.

/=slide
x=mute
(that's all you need to know)

below i'm not sure what tuning this is in (i think it sounds good in standard) so below i wrote standard. Just correct me if i'm wrong with anything.

intro (after bass)
e/-------------------------
B/-------------------------
G/-------------------------
D/------7--4--10-----7--4--
A/------7--4--10-----7--4--
E/------5--2---8-----5--2-- I'm too lazy to write how many times it repeats

e/---------------
B/---------------
G/---------------
D/--77--77----8--
A/--77--77----8--
E/--55--55----6-- listen to cd to find out how many times it repeats
    xx  xx

this part comes in after the drums do that cool little roll thing, and it plays during claypool's cool bass riff.
e/-----------------------------------------------------------------------
B/---7--7/10--11-10-11-10--10-7--13---7--7/10--11-10-11-10--10-7---7-5---
G/-----------------------------------------------------------------------
D/-----------------------------------------------------------------------
A/-----------------------------------------------------------------------
E/-----------------------------------------------------------------------

Pre chorus
e/--------------------------
B/--------------------------
G/--------------------------
D/-----5-----5-----7----7---
A/----7--7--7--7--9-9--9-9--
E/---5-----5-----7----7-----   it's played reeeeally fast and it wont sound right unless it's played fast.

Chorus
e/--------------------
B/--------------------
G/--7---7-------------
D/--7---7--7-7h8-7-5--
A/--5-----------------
E/--------------------

And the whole song is pretty much repeating the steps above. If I did anything wrong just correct me and i'll fix it. And be sure to look up more of my tabs my name is Ibanezdude666. Enjoy!!!!!!!
            
Hard to play? Try these video lessons and learn fast. | Correct




comments powered by Disqus
↑ Back to top | Tablatures and chords are parodies/interpretations of the original songs. You may use it for private study, scholarship, research or language learning purposes only