» » »

Talk To Her Tabs (ver.1)

Artists:  A B C D E F G H I J K L M N O P Q R S T U V W X Y Z # 

Talk To Her Tabs (ver.1)

Priestess
Rating:
1/5 (2 votes)

Hard to play? Try these video lessons and learn fast.
                (Intro)
Band:Priestess

I love this song, and was disapointed to see that were'nt any accurate tabs on the site 
it. Priestess is awesome!
Anyways here is the intro to "Talk to Her" which is 100% correct...
Enjoy!

                INTRO
riff 1:
E|------------------------------------------|
B|------------------------------------------|
G|------------------------------------------|
D|------------2------2--2-------------------|(x4)
A|----------2------2------------------------|
E|--------0------0--------------------------|

riff 2:
|-------------------------------------------|
|-------------------------------------------|
|-------------------------------------------|
|----2--2--2---2-2-2-------2----------------|(x4)
|----2--2--2---2-2-2-------2----------------|
|----0--0--0---0-0-0-------0----------------|

riff 3:
|------------------------------------------|
|------------------------------------------|
|------------------------------------------|
|------------------------------------------|
|----5-5-5--5--5--5---5-5-5------5--4-4-4--|
|----3-3-3--3--3--3---3-3-3------3--2-2-2--|
                                                (x1)
|------------------------------------------|
|------------------------------------------|
|------------------------------------------|
|------------------------------------------|
|---4--4--4---4-4-4-------4----------------|
|---2--2--2---2-2-2-------2----------------|

then repeat riffs 2 and then 3 for the remainder of the intro....
please rate and comment if you have any suggestions..
thanks alot...
            
Hard to play? Try these video lessons and learn fast. | Correct




comments powered by Disqus
↑ Back to top | Tablatures and chords are parodies/interpretations of the original songs. You may use it for private study, scholarship, research or language learning purposes only