>
 >
Talk To Her

Talk To Her Guitar Tabs

Priestess - Talk To Her chords, tabs, tablatures, lyrics

Guitar lessons | Add/correct | Request | Top 50 tabs Artists:  A B C D E F G H I J K L M N O P Q R S T U V W X Y Z 0-9

Talk To Her Guitar Tabs – Priestess

CD, Sheet music, Poster

Do you like Talk To Her? Share with your friends now
Bass TabsDrum TabsTabs
----------------------------------------------------------------------------
----------------------------------------------------------------------------

Tuning: Half Step Down (Eb Ab Db Gb Bb eb)

Guitar 1 & 2 (00:00)
|----------------------------------------------------|
|----------------------------------------------------|
|----------------------------------------------------|
|---9------------------------------------------------|
|---9------------------------------------------------|
|---7------------------------------------------------|

Guitar 1 & 2 (00:08)
|----------------------------------------------------|
|----------------------------------------------------|
|----------------------------------------------------| 
|---9-9-9--9-9-9--9---9-9-9--9-9-9--9----------------|6X
|---9-9-9--9-9-9--9---9-9-9--9-9-9--9----------------|
|---7-7-7--7-7-7--7---7-7-7--7-7-7--7----------------|

Guitar 1 & 2 (00:31)
|--------------------------------------------------------------------------|
|--------------------------------------------------------------------------|
|-----------------------9--9-9--9------------------------------------------|
|---9--9-9--9-7--7-7--7-9--9-9--9-9--9-9--9--9-9--9-7--7-7--7-2--2-2--2-2--|
|---9--9-9--9-7--7-7--7-7--7-7--7-9--9-9--9--9-9--9-7--7-7--7-2--2-2--2-2--|
|---7--7-7--7-5--5-5--5-----------7--7-7--7--7-7--7-5--5-5--5-0--0-0--0-0--|

|--------------------------------------------------------------------------|
|--------------------------------------------------------------------------|
|------------------------------9--9-9--9-----------------------------------|
|---2-2--2-9--9-9--9-7--7-7--7-9--9-9--9-9--9-9--9--9-9--9-7--7-7--7-------|
|---2-2--2-9--9-9--9-7--7-7--7-7--7-7--7-9--9-9--9--9-9--9-7--7-7--7-------|
|---0-0--0-7--7-7--7-5--5-5--5-----------7--7-7--7--7-7--7-5--5-5--5-------|

Guitar 1 & 2 (00:45)
|--------------------------------------------------------------------------|
|-----------------------------------/7~--------------------------------/10~|
|--------------------------------------------------------------------------|
|---9-9-9--9-9-9--9---9-9-9--9-9-9------9-9-9--9-9-9--9---9-9-9--9-9-9-----|
|---9-9-9--9-9-9--9---9-9-9--9-9-9------9-9-9--9-9-9--9---9-9-9--9-9-9-----|
|---7-7-7--7-7-7--7---7-7-7--7-7-7------7-7-7--7-7-7--7---7-7-7--7-7-7-----|

Guitar 1 & 2 (00:53)
|----------------------------------------------------|
|----------------------------------------------------|
|----------------------------------------------------| 
|---9-9-9--9-9-9--9---9-9-9--9-9-9--9----------------|4X
|---9-9-9--9-9-9--9---9-9-9--9-9-9--9----------------|
|---7-7-7--7-7-7--7---7-7-7--7-7-7--7----------------|

Guitar 1 & 2 (01:09)
|--------------------------------------------------------------------------|
|--------------------------------------------------------------------------|
|-----------------------9--9-9--9------------------------------------------|
|---9--9-9--9-7--7-7--7-9--9-9--9-9--9-9--9--9-9--9-7--7-7--7-2--2-2--2-2--|
|---9--9-9--9-7--7-7--7-7--7-7--7-9--9-9--9--9-9--9-7--7-7--7-2--2-2--2-2--|
|---7--7-7--7-5--5-5--5-----------7--7-7--7--7-7--7-5--5-5--5-0--0-0--0-0--|

|--------------------------------------------------------------------------|
|--------------------------------------------------------------------------|
|------------------------------9--9-9--9-----------------------------------|
|---2-2--2-9--9-9--9-7--7-7--7-9--9-9--9-9--9-9--9--9-9--9-7--7-7--7-------|
|---2-2--2-9--9-9--9-7--7-7--7-7--7-7--7-9--9-9--9--9-9--9-7--7-7--7-------|
|---0-0--0-7--7-7--7-5--5-5--5-----------7--7-7--7--7-7--7-5--5-5--5-------|

Guitar 1 & 2 (01:22)
|-------------------------------------------------|
|-------------------------------------------------|
|-------------------------------------------------|
|------------------------------------2--2---------|
|---5/7--5-------5---4-------2-------2--2---------|
|------------7-----------5-------2---0--0---------|


Guitar 1 (01:27)
|-------------------------------------------------|
|-------------------------------------------------|
|-------------------------------------------------|
|------------------------------------2--2---------|
|---5h7--5-------5---4-------2-------2--2---------|
|------------7-----------5-------2---0--0---------|

Guitar 2
|-------------------------------------------------|
|-------------------------------------------------|
|-------------------------------------------------|
|---4h7--4-------4----------4-----4-4/6-----------|
|-----------7p4-----7--7p4-----7------------------|
|-------------------------------------------------|


Guitar 1
|-------------------------------------------------|
|-------------------------------------------------|
|-------------------------------------------------|
|------------------------------------2--2---------|
|---5h7--5-------5---4-------2-------2--2---------|
|------------7-----------5-------2---0--0---------|

Guitar 2
|-------------------------------------------------|
|-------------------------------------------------|
|-------------------------------------------------|
|---4h7--4-------4----------4---------------------|
|-----------7p4-----7--7p4-----7--7-7-------------|
|-------------------------------------------------|


Guitar 1
|-------------------------------------------------|
|-------------------------------------------------|
|-------------------------------------------------|
|------------------------------------2--2---------|
|---5h7--5-------5---4-------2-------2--2---------|
|------------7-----------5-------2---0--0---------|

Guitar 2
|-------------------------------------------------|
|-------------------------------------------------|
|-------------------------------------------------|
|---4h7--4-------4----------4-----4-4/6-----------|
|-----------7p4-----7--7p4-----7------------------|
|-------------------------------------------------|


Guitar 1
|-------------------------------------------------|
|-------------------------------------------------|
|-------------------------------------------------|
|----------------------------5----2---------------|
|---5h7--5-------5---4-------5----2---------------|
|------------7-----------5---3----0---------------|

Guitar 2
|-------------------------------------------------|
|-------------------------------------------------|
|-------------------------------------------------|
|---4h7--4-------4-----------5----2---------------|
|-----------7p4-----7--7p4---5----2---------------|
|----------------------------3----0---------------|

Guitar 1 & 2 (01:48)
|----------------------------------------------------|
|----------------------------------------------------|
|----------------------------------------------------| 
|---9-9-9--9-9-9--9---9-9-9--9-9-9--9----------------|2X
|---9-9-9--9-9-9--9---9-9-9--9-9-9--9----------------|
|---7-7-7--7-7-7--7---7-7-7--7-7-7--7----------------|


guitar 1 (01:56)
|----------------------------------------------------|
|----------------------------------------------------|
|----------------------------------------------------| 
|---9-9-9--9-9-9--9---9-9-9--9-9-9--9----------------|4X
|---9-9-9--9-9-9--9---9-9-9--9-9-9--9----------------|
|---7-7-7--7-7-7--7---7-7-7--7-7-7--7----------------|

Guitar 2
|----------------------------------------------------|
|----------------------------------------------------|
|---/11--11/14--14/16--16/19----/11--11/14--/11------|
|----------------------------------------------------|2X
|----------------------------------------------------|
|----------------------------------------------------|

Guitar 1 & 2 (02:12)
|--------------------------| 
|--------------------------| 
|--------------------------| Couple of time
|---9x-x-x-x-x-x-x-x-x-----|
|---9x-x-x-x-x-x-x-x-x-----|
|---7x-x-x-x-x-x-x-x-x-----|

Guitar 1 & 2 (02:27)
|--------------------------------------------------------------------------|
|--------------------------------------------------------------------------|
|-----------------------9--9-9--9------------------------------------------|
|---9--9-9--9-7--7-7--7-9--9-9--9-9--9-9--9--9-9--9-7--7-7--7-2--2-2--2-2--|
|---9--9-9--9-7--7-7--7-7--7-7--7-9--9-9--9--9-9--9-7--7-7--7-2--2-2--2-2--|
|---7--7-7--7-5--5-5--5-----------7--7-7--7--7-7--7-5--5-5--5-0--0-0--0-0--|

|--------------------------------------------------------------------------|
|--------------------------------------------------------------------------|
|------------------------------9--9-9--9-----------------------------------|
|---2-2--2-9--9-9--9-7--7-7--7-9--9-9--9-9--9-9--9--9-9--9-7--7-7--7-------|
|---2-2--2-9--9-9--9-7--7-7--7-7--7-7--7-9--9-9--9--9-9--9-7--7-7--7-------|
|---0-0--0-7--7-7--7-5--5-5--5-----------7--7-7--7--7-7--7-5--5-5--5-------|

|-------------------------------|
|-------------------------------|
|-------------------------------|
|-------------------------------|
|---5/7--5-------5---4----------|
|------------7-----------5------|

Guitar 1 & 2
|--------------------------------------------------------------------------|
|--------------------------------------------------------------------------|
|-----------------------9--9-9--9------------------------------------------|
|---9--9-9--9-7--7-7--7-9--9-9--9-9--9-9--9--9-9--9-7--7-7--7-2--2-2--2-2--|
|---9--9-9--9-7--7-7--7-7--7-7--7-9--9-9--9--9-9--9-7--7-7--7-2--2-2--2-2--|
|---7--7-7--7-5--5-5--5-----------7--7-7--7--7-7--7-5--5-5--5-0--0-0--0-0--|

|--------------------------------------------------------------------------|
|--------------------------------------------------------------------------|
|------------------------------9--9-9--9-----------------------------------|
|---2-2--2-9--9-9--9-7--7-7--7-9--9-9--9-9--9-9--9--9-9--9-7--7-7--7-------|
|---2-2--2-9--9-9--9-7--7-7--7-7--7-7--7-9--9-9--9--9-9--9-7--7-7--7-------|
|---0-0--0-7--7-7--7-5--5-5--5-----------7--7-7--7--7-7--7-5--5-5--5-------|

Guitar 1 & 2 (02:57)
|--------------------------------------------------------------------------|
|-----------------------------------/7~------------------------------------|
|--------------------------------------------------------------------------|
|---9-9-9--9-9-9--9---9-9-9--9-9-9------9-9-9--9-9-9--9---9-9-9--9-9-9-----|
|---9-9-9--9-9-9--9---9-9-9--9-9-9------9-9-9--9-9-9--9---9-9-9--9-9-9-----|
|---7-7-7--7-7-7--7---7-7-7--7-7-7------7-7-7--7-7-7--7---7-7-7--7-7-7-----|

That's all, I hope you liked it. I'm not sure if it is 100% correct  
but it sounds pretty descent to me.

| /  slide up
| \  slide down
| h  hammer-on
| p  pull-off
| ~  vibrato
| x  Mute note
============================================================================





Comments


Popular Priestess tabs & chords
Everything That You Are Bass Tabs
Lay Down 2 Bass Tabs
Talk To Her Bass Tabs
Everything That You Are 1 Tabs
Lady Killer Tabs
Lay Down 3 Tabs
Living Like A Dog Tabs
Performance 1 Tabs
Time Will Cut You Down Tabs
Two Kids Tabs


Song lyrics



↑ Back to top | Tablatures and chords are parodies/interpretations of the original songs. You may use it for private study, scholarship, research or language learning purposes only
© 2014 AZChords.com Contact us | Privacy policy | DMCA | Add/correct tabs | Request tabs | Top 50 tabs