» » »

Talk To Her Bass tabs (ver.1)

Artists:  A B C D E F G H I J K L M N O P Q R S T U V W X Y Z # 

Talk To Her Bass tabs (ver.1)

Priestess
Rating:
4/5 (1 vote)

Hard to play? Try these video lessons and learn fast.
                My first tab, easy one to learn. 
Bass for this song is hard to hear but it is essentially the base root of the guitar chords. 
Sounds pretty correct, enjoy!

X= rest

Intro:

|---------|
|---------|
|---------|
|----7----|

Verse

|-------------|
|-------------|
|-------------|
|--777-777-7--| x 10

0:29 (Pre-Chorus)

|--------------------|
|--------------------|
|--------------------|
|--777-777-7--7-7-7-7|

Chorus

|-------------------------------------|
|-------------------------------------|
|-----------7-7----------------7-7-7-7| 
|-7-7--5-5-------7-7-7-7--5-5---------|

|------------------------------|
|------------------------------|
|-----------7-7----------------|
|-7-7--5-5-------7-7-7-7--5-5--|

Post Chorus

|----------------------------------------------|
|----------------------------------------------|
|----------------------------------------------|
|--777-777-7--777-777-X--777-777-7--777-777-X--|

Verse

|-------------|
|-------------|
|-------------|
|--777-777-7--| x6

1:02 (Pre-Chorus)

|--------------------|
|--------------------|
|--------------------|
|--777-777-7--7-7-7-7|

Chorus

|-------------------------------------|
|-------------------------------------|
|-----------7-7----------------7-7-7-7|
|-7-7--5-5-------7-7-7-7--5-5---------|

|------------------------------|
|------------------------------|
|-----------7-7----------------|
|-7-7--5-5-------7-7-7-7--5-5--| straight into guitar "solo"

Solo
|----------------------|
|----------------------|
|--7-5---5-4--2--------|
|------7-----5--2-0-0--| x4

|------------------------------|
|------------------------------|
|--7-5---5-4-------------------|
|------7-----5-3------------0--|

Verse

|-------------|
|-------------|
|-------------|
|--777-777-7--| x11

Breakdown (2:11-2:26)- Either way sounds fine, but first is more correct.

|--------------|
|--------------|
|--------------|
|--7777777777--| Multiple times

      OR

|---------------|
|---------------|
|---------------|
|--7-7-7-7-7-7--| Multiple times

Chorus

|-------------------------------------|
|-------------------------------------|
|-----------7-7----------------7-7-7-7| 
|-7-7--5-5-------7-7-7-7--5-5---------|

|------------------------------------------|
|------------------------------------------|
|-----------7-7----------------7-5---5-4---| 
|-7-7--5-5-------7-7-7-7--5-5------7-----5-|

|-------------------------------------|
|-------------------------------------|
|-----------7-7----------------7-7-7-7|
|-7-7--5-5-------7-7-7-7--5-5---------|

|------------------------------|
|------------------------------|
|-----------7-7----------------|
|-7-7--5-5-------7-7-7-7--5-5--|

Outro

|----------------------------------------------|
|----------------------------------------------|
|----------------------------------------------|
|--777-777-7--777-777-X--777-777-7--777-777-X--|
            
Hard to play? Try these video lessons and learn fast. | Correct




comments powered by Disqus
↑ Back to top | Tablatures and chords are parodies/interpretations of the original songs. You may use it for private study, scholarship, research or language learning purposes only