» » »

Pot, Yugyugan Na Bass tabs (ver.2)

Artists:  A B C D E F G H I J K L M N O P Q R S T U V W X Y Z # 

Yugyugan Na Bass tabs (ver.2)

Pot Tabs
 Rating:
4/5 (4 votes)
Yugyugan Na lessons Tabs too difficult? Try these video lessons and learn fast
                ayan..this is yao,from pampanga..a.k.a asolka
kmusta chugi?



eto intro
G|------------------------|
D|------------------------|
A|-5~---------------------|
E|------------------------|

Verse
(0:19)
G|----------------------------------------------------------------|
D|-5h7-7----------5h7-7----------5h7-7----------5h7-7-7p0---------|
A|----------------------------------------------------------------|
E|----5-x55x55-55----5-x55x55-55----5-x55x55-55----5------00-33---|
 *Listen for the timing. The pull off on the last measure is very subtle so listen close
the timing. :)

Variation
(0:46)
G|--------------------------------------------------------------|
D|-5h7-7----------5h7-7----------5h7-7----------5h7-7-----------|
A|--------------------------------------------------------------|
E|----5-x55x55-55----5-x55x55-55----5-x55x55-55----x-x5-00-33---|
*play until chorus

1st Chorus
(1:03)
G|----------------5------------------------------------------5-----|
D|----3---3----------------5---5-------7---------3---3-------------|
A|------------1/3---x-x----------------------------------1/3---x-x-|
E|-1x---x---1-----------3x---x---3-3/5---5-3--1x---x---1-----------|

G|----------------7------|
D|----5---5--------------|
A|------------3/5---x-x--|
E|-3x---x---3------------|

G|----------------5------------------------------------------5-----|
D|----3---3----------------5---5-------7---------3---3-------------|
A|------------1/3---x-x----------------------------------1/3---x-x-|
E|-1x---x---1-----------3x---x---3-3/5---5-3--1x---x---1-----------|


G|------------------------|
D|----5------5------------|
A|------------------------|
E|-33----3-33-------------|

G|----------------5------------------------------------------5-----|
D|----3---3----------------5---5-------7---------3---3-------------|
A|------------1/3---x-x----------------------------------1/3---x-x-|
E|-1x---x---1-----------3x---x---3-3/5---5-3--1x---x---1-----------|

G|----------------7------|
D|----5---5--------------|
A|------------3/5---5-5--|
E|-3x---x---3------------|

G|----------------5------------------------------------------5-----|
D|----3---3----------------5---5-------7---------3---3-------------|
A|------------1/3---x-x----------------------------------1/3---x-x-|
E|-1x---x---1-----------3x---x---3-3/5---5-3--1x---x---1-----------|


G|--------------------------------|
D|---5--5--5--5--5--5--5--5-------|
A|--------------------------------|
E|-33----33----3--3--33----3------| *Listen for timing

Go back to the verse here, play as many times as needed.
(1:41)
G|----------------------------------------------------------------|
D|-5h7-7----------5h7-7----------5h7-7----------5h7-7-7p0---------|
A|----------------------------------------------------------------|
E|----5-x55x55-55----5-x55x55-55----5-x55x55-55----5------00-33---|

Variation
(2:08)
G|--------------------------------------------------------------|
D|-5h7-7----------5h7-7----------5h7-7----------5h7-7-----------|
A|--------------------------------------------------------------|
E|----5-x55x55-55----5-x55x55-55----5-x55x55-55----x-x5-00-33---|
*play until chorus

2nd Chorus
(2:26)
G|----------------5------------------------------------------5-------|
D|----3---3----------------5---5-------7---------3---3---------------|
A|------------1/3---x-x----------------------------------1/3---x-3h5-|
E|-1x---x---1-----------3x---x---3-3/5---5-3--1x---x---1-------------|

G|----------------7------|
D|----5---5--------------|
A|------------3/5---5----|
E|-3x---x---3------------|

G|----------------5------------------------------------------5-----|
D|----3---3----------------5---5-------7---------3---3-------------|
A|------------1/3---x-x----------------------------------1/3---x-x-|
E|-1x---x---1-----------3x---x---3-3/5---5-3--1x---x---1-----------|


G|------------------------|
D|----5------5------------|
A|------------------------|
E|-33----3-33--3----------|

G|----------------5------------------------------------------5-----|
D|----3---3----------------5---5-------7---------3---3-------------|
A|------------1/3---x-x----------------------------------1/3---x-x-|
E|-1x---x---1-----------3x---x---3-3/5---5-3--1x---x---1-----------|

G|----------------7------|
D|----5---5--------------|
A|------------3/5---5-x--|
E|-3x---x---3------------|

G|----------------5------------------------------------------5-----|
D|----3---3----------------5---5-------7---------3---3-------------|
A|------------1/3---x-5----------------------------------1/3---x-x-|
E|-1x---x---1-----------3x---x---3-3/5---5-3--1x---x---1-----------|

G|--------------------------------|
D|---5--5--5--5--5--5--5--5-------|
A|--------------------------------|
E|-33----33----3--3--33----3------|

Guitar Solo
(3:03)
G|----------------------------------------------|
D|-5h7-7----------5h7-7----------5h7-7----------|
A|----------------------------------------------|
E|----5-x55x55-55----5-x55x55-55----5-x55x55-55-| x3

            fingerstyle
           |------------------|
G|-----------5-7-9-7-5--------|
D|-5h7-7----5-----------------|
A|----------------------------|
E|----5-x55-------------------|

G|----------------------------------------------|
D|-5h7-7----------5h7-7----------5h7-7----------|
A|----------------------------------------------|
E|----5-x55x55-55----5-x55x55-55----5-x55x55-55-| x3

          fingerstyle
         |-----------------|
G|-------------------------|
D|-5h7-7--5h7-5------------|
A|--------------7-5--------|
E|----5-xx----------8------|

Final Chorus

G|----------------5------------------------------------------5-----|
D|----3---3----------------5---5-------7---------3---3-------------|
A|------------1/3---x-x----------------------------------1/3---x-x-|
E|-1x---x---1-----------3x---x---3-3/5---5-3--1x---x---1-----------|

G|----------------7------|
D|----5---5--------------|
A|------------3/5---5-5--|
E|-3x---x---3------------|

G|----------------5------------------------------------------5-----|
D|----3---3----------------5---5-------7---------3---3-------------|
A|------------1/3---x-x----------------------------------1/3---x-x-|
E|-1x---x---1-----------3x---x---3-3/5---5-3--1x---x---1-----------|


G|------------------------|
D|----5------5------------|
A|------------------------|
E|-33----3-33--3----------|

G|----------------5------------------------------------------5-----|
D|----3---3----------------5---5-------7---------3---3-------------|
A|------------1/3---x-x----------------------------------1/3---x-x-|
E|-1x---x---1-----------3x---x---3-3/5---5-3--1x---x---1-----------|

G|-----------------------|
D|----5---5--------------|
A|------------5-5-5-5----|
E|-3x---x---3------------|

G|----------------5------------------------------------------5-----|
D|----3---3----------------5---5-------7---------3---3-------------|
A|------------1/3---x-x----------------------------------1/3---x-x-|
E|-1x---x---1-----------3x---x---3-3/5---5-3--1x---x---1-----------|

G|-------------------------------|
D|-5----5----5----5----5---------|
A|-------------------------------|
E|---33---33---33---33---33--5~~-|
            
Submit corrections

comments powered by Disqus
↑ Back to top | Pot Bass for Yugyugan Na. Lyrics for acoustic guitar and electric guitar. Tablatures and chords are parodies/interpretations of the original songs. You may use it for private study, scholarship, research or language learning purposes only