>
 >
 >
Yugyugan Na

Yugyugan Na Guitar Tabs

Pot - Yugyugan Na chords, tabs, tablatures, lyrics

Guitar lessons | Add/correct | Request | Top 50 tabs Artists:  A B C D E F G H I J K L M N O P Q R S T U V W X Y Z 0-9

Yugyugan Na Guitar Tabs – Pot

CD, Sheet music, Poster

Do you like Yugyugan Na? Share with your friends now
Bass TabsBass Tabs v2ChordsTabsUkulele
Yugyugan na by POT
paadd n din po sa frendster!! salamat!!
bumili pa kami wah pedal para d2 sa song na2 peru its worth it!! =)
zoom606 ung amin! astig mga 4-6,000 mga wah pedal ngaun hehe


pinaghirapan nmin 2!! gani2 pagkatugtug nmin enjoy!!

note:
pakingan lng ng mabuti ung kanta para makuha ung timing oki! =)

notations:
- => wah off/up
+ => wah on /down
s => stacatto
t => thrill /vibrato
h => hammer on 
p => pull off

Pre-Intro:

   -- +-
e|-xx-11\-|
B|-xx-11\-|
G|-xx-----|
D|--------|
A|--------|
E|--------|

Intro:
						 |---let ring--|	
   +---  +---  +---  +---  +---  +---   +  - - + +-
e|-xxxx--xxxx--xxxx--xxxx--xxxx--xxxx---6--7-7-8-8-------------| 4x
B|-xxxx--xxxx--xxxx--xxxx--xxxx--xxxx---6--7-7-8-8-------------|
G|-xxxx--xxxx--xxxx--xxxx--xxxx--xxxx---6--7-7-8-8-------------|
D|-------------------------------------------------------------|
A|-------------------------------------------------------------|
E|-------------------------------------------------------------|


Verse:

"Sige na people"

   |-let ring-----|	
   + - + - + - + -  +--- +---  +---------- +--
e|-8----------------xxxx-xxxx--6h8-8-8-xxx-6h8----------------| 3x
B|-8----------------xxxx-xxxx--6h8-8-8-xxx-6h8----------------|
G|-8----------------xxxx-xxxx--6-8-8-8-xxx-6-8----------------|
D|------------------------------------------------------------|
A|------------------------------------------------------------|
E|------------------------------------------------------------|

Transition riff 1

   |-let ring-----|	
   + - + - + - + -  +--- +--- +---  +- - -
e|-8----------------xxxx-xxxx-xxxx--6--7-7--| 
B|-8----------------xxxx-xxxx-xxxx--6--7-7--|
G|-8----------------xxxx-xxxx-xxxx--6--7-7--|
D|------------------------------------------|
A|------------------------------------------|
E|------------------------------------------|

Refrain:

   +-- +--  + - +   - - -
e|-8-8-xxx------6----------| 7x
B|-8-8-xxx----6-6---8-8-8--|
G|-8-8-xxx--8-------8-8-8--|
D|-------------------------|
A|-------------------------|
E|-------------------------|

transition riff 2

   +-- +--  +-+-   -+-   -+-   -+- 
e|-8-8-xxx----------------------------| 
B|-8-8-xxx----------5-----7-----9\----|
G|-8-8-xxx--8-8-----5-----7-----9\----|
D|------------------5-----7-----9\----|
A|------------------------------------|
E|------------------------------------|

Chorus:

      note: this part sounds like a tremolo bar used but actually it is just
	the wah pedal on and off on a periodic timing, practice lang kakangawit lang hehe:p
 		

      |-let ring------|
   -- +-+-+-+-+-+-+-+-+  --+ - - --+--+--+--+--+--+--+--+--+--+  -+ +
e|----------------------------------------------------------------------|3x
B|-5h-7------------------5h7-x-5-xx5xx5xx5xx5xx5xx5xx5xx5xx5xx5--xx5-5--|
G|-5h-7------------------5h7-x-5-xx5xx5xx5xx5xx5xx5xx5xx5xx5xx5--xx5-5--|
D|-5h-7------------------5h7-x-5-xx5xx5xx5xx5xx5xx5xx5xx5xx5xx5--xx5-5--|
A|----------------------------------------------------------------------|
E|----------------------------------------------------------------------|

   
Transition Riff 3

					   |--let ring-----------|	
   -- + +   ---- + +   ---- +  +    ---- + +- -+- -+- -+- -+- -+-
e|---------------------------------------------------------------|
B|-xx-5-5---xxxx-7-7---xxxx-12-12---xxxx-5-5---------------------|
G|-xx-5-5---xxxx-7-7---xxxx-12-12---xxxx-5-5---------------------|
D|-xx-5-5---xxxx-7-7---xxxx-12-12---xxxx-5-5---------------------|
A|---------------------------------------------------------------|
E|---------------------------------------------------------------|


Adlib: just like the intro but different pre intro play 8 instead of 11


   -- +-
e|-xx-8\-|
B|-xx-8\-|
G|-xx----|
D|-------|
A|-------|
E|-------|

						 |---let ring--|	
   +---  +---  +---  +---  +---  +---   +  - - + +-
e|-xxxx--xxxx--xxxx--xxxx--xxxx--xxxx---6--7-7-8-8-------------| 4x
B|-xxxx--xxxx--xxxx--xxxx--xxxx--xxxx---6--7-7-8-8-------------|
G|-xxxx--xxxx--xxxx--xxxx--xxxx--xxxx---6--7-7-8-8-------------|
D|-------------------------------------------------------------|
A|-------------------------------------------------------------|
E|-------------------------------------------------------------|


Solo: while playing Riff above


   - - - +   -  +-   -  +-   - +-    -  +--   +- +  -  +-  -    - + ----
e|-------------------------------------------11-----------------------------|
B|---------------------------11-11---11h13-------x--11h13-------------------|
G|-8-8-8-8---10-10---12-12---------------------------------12-x-8h10p8-8\---|
D|--------------------------------------------------------------------------|
A|--------------------------------------------------------------------------|
E|--------------------------------------------------------------------------|


   --- -  +--- +  -  +  -   --++- +   -  +   -    -+--    -  - +  ++   --+   --  
e|-xxx-13p11-x-11-13-11-----------11---------------------------------------------|
B|-xxx-11-11-x-11-------13--11h13----13--11--13\---------------------------------|
G|-------------------------------------------------12p10--8--8h10--12--8h10--8\--|
D|-------------------------------------------------------------------------------|
A|-------------------------------------------------------------------------------|
E|-------------------------------------------------------------------------------|

					      t	     t           t         t      
    --+- + -  + --       --+-  --+-   -   +-  +-     +- +-  -+-  -   -+-  -+ -  
e|------------------------------------------------------------------------------|
B|-------8----8-------------------------------11-----9--8\-------11-------------|
G|-------8----8----------------8h10--10-\-12----------------\12------12p10p8----|
D|--8h10---10---10\------8h10---------------------------------------------------|
A|------------------------------------------------------------------------------|
E|------------------------------------------------------------------------------|

whew!! ang hirap ni2 ilang oras ko 2 ginawa salamat sa mga kaband ko!! d best sila!!

cge hangang d2 n lng!! enjoy !!





Comments


Popular Pot tabs & chords
Yugyugan Na Bass Tabs
Panaginip Chords
Ulitin Chords
Fish Cake Tabs
Monkey On My Back Tabs
Panaginip 1 Tabs
Posse-Bility Tabs
Ulitin Tabs
Panaginip Ukulele
Yugyugan Na Ukulele


Song lyrics



↑ Back to top | Tablatures and chords are parodies/interpretations of the original songs. You may use it for private study, scholarship, research or language learning purposes only
© 2014 AZChords.com Contact us | Privacy policy | DMCA | Add/correct tabs | Request tabs | Top 50 tabs