>
 >
 >
Piece Of This

Piece Of This Guitar Tabs

Pot - Piece Of This chords, tabs, tablatures, lyrics

Guitar lessons | Add/correct | Request | Top 50 tabs Artists:  A B C D E F G H I J K L M N O P Q R S T U V W X Y Z 0-9

Piece Of This Guitar Tabs – Pot

CD, Sheet music, Poster

Do you like Piece Of This? Share with your friends now
Tabs
PIECE OF THIS
P.O.T.
encoded by: jp dela cruz                 


Verse 1

||--------3---5--5---------|-------3-3---5--5---------|
||o-3h5---5---6--6--6h8--6-|-3h5---5-5---6--6--6h8--6-|
||--4-----4---5--5--5----5-|-4-----4-4---5--5--5----5-|
||-------------------------|--------------------------|
||o-3---3---5-------5------|-3---3-----5-------5------|
||-------------------------|--------------------------|



|-------3---5--5---------|-------3--^3------||
|-3h5---5---6--6--6h8--6-|-3h5---5--^5-----o||
|-4-----4---5--5--5----5-|-4-----4--^4------||
|------------------------|----------^5------||
|-3---3---5-------5------|-3---3----^3-----o||
|------------------------|------------------||


Pre-Chorus

||--1-----1-0-----0-|-0--------------------------||-^0----------------|
||o-3-3-----0-0-----|-0--0h1---3--1---0h1p0-----o||-^0---1-3-1-0------|
||------2-------0---|-0------0------0-------0----||-^0-----------0----|
||--0---------------|-------------------------2--||----------------2--|
||o-----------------|-3-------------------------o||-^3----------------|
||----------3-------|----------------------------||-------------------|


Chorus

|-----0--0--0--0-|-(0)--------|-0----0--0--0-|-(0)----|
|-1---1--1--1--0-|-(0)--------|-0----0--0--1-|-(1)----|
|---2-2--2--2--0-|-(0)--------|-0----0--0--2-|-(2)----|
|-3------3-----2-|-(2)--------|------------3-|-(3)----|
|-----------0----|------------|-7----7-------|--------|
|----------------|------------|---------7----|--------|


|-------0-----0--0--0-|-(0)--------|-0----0--0--0-|-(0)-------------|
|-----1---1---1--1--0-|-(0)--------|-0----0--0--1-|-(1)----8--6--5--|
|---2-------2-2--2--0-|-(0)--------|-0----0--0--2-|-(2)----7--5--4--|
|-3-----------3-----2-|-(2)--------|------------3-|-(3)-------------|
|----------------0----|------------|-7----7-------|--------7--5--3--|
|---------------------|------------|---------7----|-----------------|


Interlude

|---------3-------------|---------3-------------|
|-5--5----5--6---6-8-6--|-5--5----5--6---6-8-6--|
|-4--4----4--5---5------|-4--4----4--5---5------|
|-5--5-------7---7------|-5--5-------7---7------|
|-3--3--3----5---5------|-3--3--3----5---5------|
|-----------------------|-----------------------|

|---------3-------------|---------3--^3-------|
|-5--5----5--6---6-8-6--|-5--5----5--^5-------|
|-4--4----4--5---5------|-4--4----4--^4-------|
|-5--5-------7---7------|-5--5-------^5-------|
|-3--3--3----5---5------|-3--3--3----^3-------|
|-----------------------|---------------------|


Verse 2 & 3

||----------3-------------|---------3-------------|
||o-5--5----5--6---6-8-6--|-5--5----5--6---6-8-6--|
||--4--4----4--5---5------|-4--4----4--5---5------|
||--5--5-------7---7------|-5--5-------7---7------|
||o-3--3--3----5---5------|-3--3--3----5---5------|
||------------------------|-----------------------|



|---------3-------------|---------3--^3-------||
|-5--5----5--6---6-8-6--|-5--5----5--^5------o||
|-4--4----4--5---5------|-4--4----4--^4-------||
|-5--5-------7---7------|-5--5-------^5-------||
|-3--3--3----5---5------|-3--3--3----^3------o||
|-----------------------|---------------------||


Pre-Chorus
 
||--1-----1-0-----0-|-0--------------------------||-^0----------------|
||o-3-3-----0-0-----|-0--0h1---3--1---0h1p0-----o||-^0---1-3-1-0------|
||------2-------0---|-0------0------0-------0----||-^0-----------0----|
||--0---------------|-------------------------2--||----------------2--|
||o-----------------|-3-------------------------o||-^3----------------|
||----------3-------|----------------------------||-------------------|

Chorus

|------8--12---8--^7-|-(7)----------7-|-^7--x-7--10--7--^-8-|
|-----10--10--10--^8-|-(8)------8-----|-^8--x-8---8--8--^10-|
|---9------9---9--^7-|-(7)--------7---|-^7--x-7---7--7--^-9-|
|-----------------^9-|----------------|-^9--------------^10-|
|-8---------------^7-|-(7)------------|-^7--------7-----^-8-|
|--------------------|----------------|---------------------|


|--(8)--x--8-x-x--8h10-x-x--8h10h12p8---|
|-(10)--x-10-x-x-10----x-x-10-----------|
|--(9)--x--9-x-x--9----x-x--9-----------|
|-(10)----------------------------------|
|--(8)----------------------------------|
|---------------------------------------|



|-^-8--x--8--12---8--^7-|-(7)----------7-|
|-^10--x-10--10--10--^8-|-(8)------8-----|
|-^-9--x--9---9---9--^7-|-(7)--------7---|
|-^10----------------^9-|----------------|
|-^-8----------------^7-|-(7)------------|
|-----------------------|----------------|


  Em7             Fmaj7             Em7Dm7Cmaj7
|-^7--x-7--10--7--^-8-|--(8)--x--8------------|
|-^8--x-8---8--8--^10-|-(10)--x-10--8--6--5---|
|-^7--x-7---7--7--^-9-|--(9)--x--9--7--5--4---|
|-^9--------------^10-|-(10)------------------|
|-^7--------7-----^-8-|--(8)--------7--5--3---|
|---------------------|-----------------------|


 Guitar Solo
 
|---------------------17--15-12-15--|-----------------------------------|
|-----------------------------------|-----------------------------------|
|-----------17S19-17-/14--12--9-12--|-----------17S19-17-19-------------|
|-17S19-17--------------------------|-17S19-17---------------19-17-19---|
|-----------15S17-15----------------|-----------15S17-15-17-------------|
|-15S17-15--------------------------|-15S17-15---------------17-15h17---|


|---------------------17--15-12-15--|--17--15----------------------------|
|-----------------------------------|----------17--15---17-15-13S15-13---|
|-----------17S19-17-/14--12--9-12--|-/14--12----------------------------|
|-17S19-17--------------------------|---------/14--12--/14-12-10S12-10---|
|-----------15S17-15----------------|------------------------------------|
|-15S17-15--------------------------|------------------------------------|


|-------7-------|---------2--------|
|-12-------8----|------4------4----|
|-------------7-|---2------------2-|
|--9------------|-4----------------|
|---------------|------------------|
|---------------|------------------|


|--------12------------|------------11------------|
|----12------12--------|--------10-------10-------|
|-12--------------12---|----11---------------11---|
|----------------------|-13-----------------------|
|----------------------|--------------------------|
|----------------------|--------------------------|


|--------12------------|------------11----------|-0----0----|-------0--x-2-|
|----12------12--------|--------10-------10-----|-2----1----|-----5-1--x-3-|
|-12--------------12---|----11---------------11-|-2----2----|-4-----2--x-2-|
|----------------------|-13---------------------|-----------|---5----------|
|----------------------|------------------------|-----------|--------------|
|----------------------|------------------------|-----------|--------------|

 Outro

|-^7--x-7--10--7--^-8-|-^-(8)----------^0-|-^(0)----*|
|-^8--x-8---8--8--^10-|-^(10)----8--6--^0-|-^(0)----*|
|-^7--x-7---7--7--^-9-|-^-(9)----7--5--^0-|-^(0)----*|
|-^9--------------^10-|-^(10)-------------|---------*|
|-^7--------7-----^-8-|-^-(8)----7--5--^3-|-^(3)----*|
|---------------------|-------------------|---------*|





Comments


Popular Pot tabs & chords
Yugyugan Na Bass Tabs
Yugyugan Na 1 Bass Tabs
Panaginip Chords
Ulitin Chords
Yugyugan Na Chords
Fyb Tabs
Love To See Tabs
Panaginip 1 Tabs
Posse-Bility Tabs
Ulitin Tabs


Song lyrics



↑ Back to top | Tablatures and chords are parodies/interpretations of the original songs. You may use it for private study, scholarship, research or language learning purposes only
© 2014 AZChords.com Contact us | Privacy policy | DMCA | Add/correct tabs | Request tabs | Top 50 tabs