» » »

Pop Evil, Last Man Standing Tabs (ver.2)

Artists:  A B C D E F G H I J K L M N O P Q R S T U V W X Y Z # 

Last Man Standing Tabs (ver.2)

Pop Evil Tabs
 Rating:
3/5 (6 votes)
Last Man Standing lessons Tabs too difficult? Try these video lessons and learn fast
1
                (Intro)
-----------------------------------------------------------------------------
                             Last Man Standing - Pop Evil
-----------------------------------------------------------------------------

Tuning: Drop C (CGCFAD)

Fooled around with it and this sounds about right for the intro.



(w/ phaser/chorus)
D|------------------------------------------|
A|------------------------------------------|
F|------------------------------------------|
C|------------------------------------------|
G|---------5--------------------------------|
C|-----0-3---[5]vvv-0-3---00-0-00000-0-0000-|
                          |Pm..............|


(Dist.)
D|------------------------------------------|
A|------------------------------------------|
F|------------------------------------------|
C|------------------------------------------|
G|-----0-3-5----------3---------------------|
C|-----0-3---[5]vvv-0-3---00-0-00000-0-0000-|
                         |Pm.............|



D|------------------------------------------|
A|------------------------------------------|
F|------------------------------------------|
C|------------------------------------------|
G|-----0-3-5----------55-5-555555-5-5555----|
C|-----0-3---6--3-5---55-5-555555-5-5555----|
                      |Pm..............|



D|------------------------------------------|
A|------------------------------------------|
F|------------------------------------------|
C|------------------------------------------|
G|-----0-3-5----------3---------------------|
C|-----0-3---[5]vvv-0-3---00-0-00000-0-0000-|
                         |Pm.............|


(guessed here...)
D|------------------------------------------|
A|------------------------------------------|
F|------------------------------------------|
C|-----5-3--[3]-----------------------------|
G|---------5-----5-3-5-3--------------------|
C|-----------------------5-3-5-3-0-0--------|
                         |Pm.......|
                         ^^^^^^^^^^^
                         | | | | | |
                         (This part rolls into the verse)


[] - pinch harmonic
v  - vibrato
Pm - Palm Mute
            
Submit corrections

comments powered by Disqus
↑ Back to top | Pop Evil Tabs for Last Man Standing. Lyrics for acoustic guitar and electric guitar. 1 Tablatures and chords are parodies/interpretations of the original songs. You may use it for private study, scholarship, research or language learning purposes only