>
 >
Last Man Standing

Last Man Standing Guitar Tabs

Pop Evil - Last Man Standing chords, tabs, tablatures, lyrics

Guitar lessons | Add/correct | Request | Top 50 tabs Artists:  A B C D E F G H I J K L M N O P Q R S T U V W X Y Z 0-9

Last Man Standing Guitar Tabs – Pop Evil

CD, Sheet music, Poster

Do you like Last Man Standing? Share with your friends now
Bass TabsChordsTabsUkulele
-------------------------------------------------------------------------------
-------------------------------------------------------------------------------


Tuning: Drop C

     
     Intro                                                                     
                       PM         PM PM PM   PM PM PM PM PM PM   PM PM PM  
     E    E  E  E  E   E  Q       S  E  S  S S  S  S  S  E  S  S S  S  S   
D||----------------------------|------------------------------------------|
A||----------------------------|------------------------------------------|
F||----------------------------|------------------------------------------|
C||-----------------------3----|------------------------------------------|
G||----------5------------3----|------------------------------------------|
C||--0--3g6-----5--L~--0--3----|--0--0--0----0--0--0--0--0--0----0--0--0--|


                    PM         PM PM PM   PM PM PM PM PM PM   PM PM PM  
  E    E  E  E  E   E  Q       S  E  S  S S  S  S  S  E  S  S S  S  S   
----------------------------|------------------------------------------|
----------------------------|------------------------------------------|
----------------------------|------------------------------------------|
-----------------------3----|------------------------------------------|
----------5------------3----|------------------------------------------|
--0--3g6-----5--L~--0--3----|--0--0--0----0--0--0--0--0--0----0--0--0--|


                              PM PM PM   PM PM PM PM PM PM   PM PM PM  
  E    E  E  E  E  E  Q       S  E  S  S S  S  S  S  E  S  S S  S  S   
---------------------------|------------------------------------------|
---------------------------|------------------------------------------|
---------------------------|------------------------------------------|
-------------6--L-----5----|------------------------------------------|
----------5--------5-------|------------------------------------------|
--0--3g6-------------------|--5--5--5----5--5--5--6--6--6----6--6--6--|


                    PM                                     PM PM PM PM  
  E    E  E  E  E   E  Q       S  S S S E   S  S S  S S  S S  S  S  S   
----------------------------|------------------------------------------||
----------------------------|------------------------------------------||
----------------------------|------------------------------------------||
-----------------------3----|--5p-3---3-Lb-----------------------------||
----------5------------3----|-------5-------5p-3-5p-3------------------||
--0--3g6-----5--L~--0--3----|-------------------------5--4-3--0--0--0--||


  Verse 1                                       
  PM PM PM   PM PM PM PM PM PM   PM PM PM  
  S  E  S  S S  S  S  S  E  S  S S  S  S   
------------------------------------------|
------------------------------------------|
------------------------------------------|
------------------------------------------|
------------------------------------------|
--1--0--0----0--0--0--1--0--0----0--0--0--|


  PM PM PM   PM PM PM PM PM PM PM PM PM PM PM  
  S  E  S  S S  S  S  S  S  S  S  S  S  S  S   
----------------------------------------------|
----------------------------------------------|
----------------------------------------------|
----------------------------------------------|
----------------------------------------------|
--1--0--0----0--0--0--1--1--1--1--3--3--3--3--|


  PM PM PM   PM PM PM PM PM PM   PM PM PM  
  S  E  S  S S  S  S  S  E  S  S S  S  S   
------------------------------------------|
------------------------------------------|
------------------------------------------|
------------------------------------------|
------------------------------------------|
--1--0--0----0--0--0--1--0--0----0--0--0--|


  PM PM PM   PM PM PM                                  
                      |--3--| |--3--| |--3--| |--3--|  
  S  E  S  S S  S  S  S  S  S S  S  S S  S  S S  S  S  
------------------------------------------------------|
------------------------------------------------------|
----------------------3p-2p-0-------------------------|
------------------------------3p-2p-0-----------------|
--------------------------------------3p-1p-0---------|
--1--0--0----0--0--0--------------------------3p-2p-0-|


  PM PM PM   PM PM PM PM PM PM   PM PM PM  
  S  E  S  S S  S  S  S  E  S  S S  S  S   
------------------------------------------|
------------------------------------------|
------------------------------------------|
------------------------------------------|
------------------------------------------|
--1--0--0----0--0--0--1--0--0----0--0--0--|


  PM PM PM   PM PM PM PM PM    PM PM     
  S  E  S  S S  S  S  S  S  E  S  S  E   
----------------------------------------|
----------------------------------------|
----------------------------7--------7--|
----------------------------------------|
----------------------------------------|
--1--0--0----0--0--0--0--0-----0--0-----|


  PM PM PM   PM PM PM PM PM PM   PM PM PM  
  S  E  S  S S  S  S  S  E  S  S S  S  S   
------------------------------------------|
------------------------------------------|
------------------------------------------|
------------------------------------------|
------------------------------------------|
--1--0--0----0--0--0--1--0--0----0--0--0--|


  PM PM PM   PM PM PM PM PM PM PM PM PM PM PM  
  S  E  S  S S  S  S  S  S  S  S  S  S  S  S   
----------------------------------------------|
----------------------------------------------|
----------------------------------------------|
----------------------------------------------|
----------------------------------------------|
--1--0--0----0--0--0--1--1--1--1--3--3--3--3--|


  PM PM PM PM PM PM PM PM PM PM PM PM PM PM PM PM  
  S  S  S  S  S  S  S  S  S  S  S  S  S  S  S  S   
--------------------------------------------------|
--------------------------------------------------|
--------------------------------------------------|
--------------------------------------------------|
--------------------------------------------------|
--5--5--5--5--5--5--5--5--5--5--5--5--5--5--5--5--|


                                               Chorus 1                       
  PM PM PM PM PM PM PM PM PM PM PM PM PM                         PM PM  
  S  S  S  S  S  S  S  S  S  S  S  S  Q        E.  S E  E  S E.  E  E   
-------------------------------------------||--------------------------|
-------------------------------------------||--------------------------|
-------------------------------------------||--------------------------|
-------------------------------------------||--------------------------|
-------------------------------------------||--0---3----0--L-3---0--3--|
--4--4--4--4--4--4--4--4--3--3--3--3--3----||--0---3----0--L-3---0--3--|


                    PM PM                      PM PM  
  E.  S E  E  S E.  E  E     E.  S E  E  S E.  E  E   
--------------------------|--------------------------|
--------------------------|--------------------------|
--------------------------|--------------------------|
--------------------------|--------------------------|
--3---0----3--L-0---3--0--|--5---0----5--L-0---5--0--|
--3---0----3--L-0---3--0--|--5---0----5--L-0---5--0--|


                                                 PM PM  
  Q    Q     Q    S  S S  S    E.  S E  E  S E.  E  E   
----------------------------|--------------------------|
----------------------------|--------------------------|
----------------------------|--------------------------|
----------------------------|--------------------------|
------------------3p-0------|--0---3----0--L-3---0--3--|
--6----5~----3---------5p-3-|--0---3----0--L-3---0--3--|


                    PM PM                      PM PM  
  E.  S E  E  S E.  E  E     E.  S E  E  S E.  E  E   
--------------------------|--------------------------|
--------------------------|--------------------------|
--------------------------|--------------------------|
--------------------------|--------------------------|
--3---0----3--L-0---3--0--|--5---0----5--L-0---5--0--|
--3---0----3--L-0---3--0--|--5---0----5--L-0---5--0--|


  E  E  E  E  E  E  E  E     E  E  E  E  E  E  E  E   
--------------------------|--------------------------|
--------------------------|--------------------------|
--------------------------|--------------------------|
--------------------------|--------------------------|
--3--3--3--3--3--3--3--3--|--0--0--0--0--0--0--0--0--|
--3--3--3--3--3--3--3--3--|--0--0--0--0--0--0--0--0--|


  E  E  E  E  E  E  E  E     E  E  E  E  E  E  E  E     Q    Q    H         
--------------------------|--------------------------|---------------------|
--------------------------|--------------------------|---------------------|
--------------------------|--------------------------|---------------------|
--------------------------|--------------------------|---------------------|
--3--3--3--3--3--3--3--3--|--5--5--5--5--5--5--5-----|--3------------------|
--3--3--3--3--3--3--3--3--|--5--5--5--5--5--5--5--0--|--3------------------|


                    PM         PM PM PM   PM PM PM PM PM PM   PM PM PM  
  E    E  E  E  E   E  Q       S  E  S  S S  S  S  S  E  S  S S  S  S   
----------------------------|------------------------------------------|
----------------------------|------------------------------------------|
----------------------------|------------------------------------------|
-----------------------3----|------------------------------------------|
----------5------------3----|------------------------------------------|
--0--3g6-----5--L~--0--3----|--0--0--0----0--0--0--0--0--0----0--0--0--|


                                                          PM PM PM PM  
  E    E  E  E  E  E  Q       S  S S S E   S  S S  S S  S S  S  S  S   
---------------------------|------------------------------------------||
---------------------------|------------------------------------------||
---------------------------|------------------------------------------||
-------------6--L-----5----|--5p-3---3-Lb-----------------------------||
----------5--------5-------|-------5-------5p-3-5p-3------------------||
--0--3g6-------------------|-------------------------5p-4-3--0--0--0--||


  Verse 2                                       
  PM PM PM   PM PM PM PM PM PM   PM PM PM  
  S  E  S  S S  S  S  S  E  S  S S  S  S   
------------------------------------------|
------------------------------------------|
------------------------------------------|
------------------------------------------|
------------------------------------------|
--1--0--0----0--0--0--1--0--0----0--0--0--|


  PM PM PM   PM PM PM PM PM PM PM PM PM PM PM  
  S  E  S  S S  S  S  S  S  S  S  S  S  S  S   
----------------------------------------------|
----------------------------------------------|
----------------------------------------------|
----------------------------------------------|
----------------------------------------------|
--1--0--0----0--0--0--1--1--1--1--3--3--3--3--|


  PM PM PM   PM PM PM PM PM PM   PM PM PM  
  S  E  S  S S  S  S  S  E  S  S S  S  S   
------------------------------------------|
------------------------------------------|
------------------------------------------|
------------------------------------------|
------------------------------------------|
--1--0--0----0--0--0--1--0--0----0--0--0--|


  PM PM PM   PM PM PM                                  
                      |--3--| |--3--| |--3--| |--3--|  
  S  E  S  S S  S  S  S  S  S S  S  S S  S  S S  S  S  
------------------------------------------------------|
------------------------------------------------------|
----------------------3p-2p-0-------------------------|
------------------------------3p-2p-0-----------------|
--------------------------------------3p-1p-0---------|
--1--0--0----0--0--0--------------------------3p-2p-0-|


  PM PM PM   PM PM PM PM PM PM   PM PM PM  
  S  E  S  S S  S  S  S  E  S  S S  S  S   
------------------------------------------|
------------------------------------------|
------------------------------------------|
------------------------------------------|
------------------------------------------|
--1--0--0----0--0--0--1--0--0----0--0--0--|


  PM PM PM   PM PM PM PM PM    PM PM     
  S  E  S  S S  S  S  S  S  E  S  S  E   
----------------------------------------|
----------------------------------------|
----------------------------7--------7--|
----------------------------------------|
----------------------------------------|
--1--0--0----0--0--0--0--0-----0--0-----|


  PM PM PM   PM PM PM PM PM PM   PM PM PM  
  S  E  S  S S  S  S  S  E  S  S S  S  S   
------------------------------------------|
------------------------------------------|
------------------------------------------|
------------------------------------------|
------------------------------------------|
--1--0--0----0--0--0--1--0--0----0--0--0--|


  PM PM PM   PM PM PM PM PM PM PM PM PM PM PM  
  S  E  S  S S  S  S  S  S  S  S  S  S  S  S   
----------------------------------------------|
----------------------------------------------|
----------------------------------------------|
----------------------------------------------|
----------------------------------------------|
--1--0--0----0--0--0--1--1--1--1--3--3--3--3--|


  PM PM PM PM PM PM PM PM PM PM PM PM PM PM PM PM  
  S  S  S  S  S  S  S  S  S  S  S  S  S  S  S  S   
--------------------------------------------------|
--------------------------------------------------|
--------------------------------------------------|
--------------------------------------------------|
--------------------------------------------------|
--5--5--5--5--5--5--5--5--5--5--5--5--5--5--5--5--|


                                              Chorus 2                       
  PM PM PM PM PM PM PM PM PM PM PM PM PM                        PM PM  
  S  S  S  S  S  S  S  S  S  S  S  S  Q       E.  S E  E  S E.  E  E   
-------------------------------------------|--------------------------|
-------------------------------------------|--------------------------|
-------------------------------------------|--------------------------|
-------------------------------------------|--------------------------|
-------------------------------------------|--0---3----0--L-3---0--3--|
--4--4--4--4--4--4--4--4--3--3--3--3--3----|--0---3----0--L-3---0--3--|


                    PM PM                      PM PM  
  E.  S E  E  S E.  E  E     E.  S E  E  S E.  E  E   
--------------------------|--------------------------|
--------------------------|--------------------------|
--------------------------|--------------------------|
--------------------------|--------------------------|
--3---0----3--L-0---3--0--|--5---0----5--L-0---5--0--|
--3---0----3--L-0---3--0--|--5---0----5--L-0---5--0--|


                                                 PM PM  
  Q    Q     Q    S  S S  S    E.  S E  E  S E.  E  E   
----------------------------|--------------------------|
----------------------------|--------------------------|
----------------------------|--------------------------|
----------------------------|--------------------------|
------------------3p-0------|--0---3----0--L-3---0--3--|
--6----5~----3---------5p-3-|--0---3----0--L-3---0--3--|


                    PM PM                      PM PM  
  E.  S E  E  S E.  E  E     E.  S E  E  S E.  E  E   
--------------------------|--------------------------|
--------------------------|--------------------------|
--------------------------|--------------------------|
--------------------------|--------------------------|
--3---0----3--L-0---3--0--|--5---0----5--L-0---5--0--|
--3---0----3--L-0---3--0--|--5---0----5--L-0---5--0--|


  E  E  E  E  E  E  E  E     E  E  E  E  E  E  E  E   
--------------------------|--------------------------|
--------------------------|--------------------------|
--------------------------|--------------------------|
--------------------------|--------------------------|
--3--3--3--3--3--3--3--3--|--0--0--0--0--0--0--0--0--|
--3--3--3--3--3--3--3--3--|--0--0--0--0--0--0--0--0--|


  E  E  E  E  E  E  E  E     E  E  E  E  E  E  E  E     Q    Q    H         
--------------------------|--------------------------|---------------------|
--------------------------|--------------------------|---------------------|
--------------------------|--------------------------|---------------------|
--------------------------|--------------------------|---------------------|
--3--3--3--3--3--3--3--3--|--5--5--5--5--5--5--5-----|--3------------------|
--3--3--3--3--3--3--3--3--|--5--5--5--5--5--5--5--0--|--3------------------|


                       Bridge                                     
                                  PM PM PM PM PM      PM PM  
  W                    S S S S E  S  S  S  S  S  S E  S  S   
-------------------||---------------------------------------|
-------------------||---------------------------------------|
--2----------------||---------------------------------------|
--0----------------||--5-3----------------------------------|
--0----------------||------5-4-L-----------------3-L--------|
--0----------------||-------------0--0--3--5--0-------0--0--|


  PM PM PM      PM PM PM PM PM      PM PM  
  S  S  S  S E  S  S  S  S  S  S E  S  S   
------------------------------------------|
------------------------------------------|
------------------------------------------|
------------------------------------------|
-----------4-L-----------------5-L--5--5--|
--3--5--5-------0--0--3--5--5-------------|


             PM PM PM PM PM      PM PM    PM PM PM      PM PM          PM PM  
  S S S S E  S  S  S  S  S  S E  S  S     S  S  S  S E  S  S   Q.      S  S   
---------------------------------------|-------------------------------------|
---------------------------------------|-------------------------------------|
---------------------------------------|-------------------------------------|
--5-3----------------------------------|-------------------------------------|
------5-4-L-----------------3-L--------|-----------4-L-----------------------|
-------------0--0--3--5--0-------0--0--|--3--5--5-------0--0--12\------0--0--|


                PM PM PM PM PM      PM PM  
     S S S S E  S  S  S  S  S  S E  S  S   
||----------------------------------------|
||----------------------------------------|
||*---------------------------------------|
||*--5-3----------------------------------|
||-------5-4-L-----------------3-L--------|
||--------------0--0--3--5--0-------0--0--|


  PM PM PM      PM PM PM PM PM      PM PM    
  S  S  S  S E  S  S  S  S  S  S E  S  S   3x
-------------------------------------------||
-------------------------------------------||
------------------------------------------*||
------------------------------------------*||
-----------4-L-----------------5-L--5--5---||
--3--5--5-------0--0--3--5--5--------------||


  PM PM PM PM PM PM PM PM PM PM PM PM PM PM PM PM  
  S  S  S  S  S  S  S  S  S  S  S  S  S  S  S  S   
--------------------------------------------------|
--------------------------------------------------|
--------------------------------------------------|
--------------------------------------------------|
--------------------------------------------------|
--5--5--5--5--5--5--5--5--5--5--5--5--5--5--5--5--|


                                                      Break Down                        
  PM PM PM PM PM PM PM PM PM PM PM PM PM PM PM PM     PM  PM    PM    PM PM PM  
  S  S  S  S  S  S  S  S  S  S  S  S  S  S  S  S      E.  S  E  E  E  E  E  E   
--------------------------------------------------||---------------------------|
--------------------------------------------------||---------------------------|
--------------------------------------------------||---------------------------|
--------------------------------------------------||---------------------------|
--------------------------------------------------||---------------------------|
--4--4--4--4--4--4--4--4--3--3--3--3--3--3--3--3--||--0---3-----0-----3--0--3--|


  PM  PM    PM    PM PM PM    PM  PM    PM    PM PM PM  
  E.  S  E  E  E  E  E  E     E.  S  E  E  E  E  E  E   
---------------------------|---------------------------|
---------------------------|---------------------------|
---------------------------|---------------------------|
---------------------------|---------------------------|
---------------------------|---------------------------|
--0---3-----0-----3--0--3--|--0---3-----0-----3--0--3--|


  PM  PM    PM    PM              PM  PM    PM    PM PM PM  
  E.  S  E  E  E  E  S  S S  S    E.  S  E  E  E  E  E  E   
-------------------------------|---------------------------|
-------------------------------|---------------------------|
-------------------------------|---------------------------|
-------------------------------|---------------------------|
---------------------3p-0------|---------------------------|
--0---3-----0-----3-------5p-0-|--0---3-----0-----3--0--3--|


  PM  PM    PM    PM    PM        PM          PM    PM                        
  E.  S  E  E  E  E  E  E     E.  S  E  E  E  E  E  E     Q    Q    H         
---------------------------|---------------------------|---------------------||
---------------------------|---------------------------|---------------------||
---------------------------|---------------------------|---------------------||
---------------------------|---------------------------|--3------------------||
---------------------3-----|--5---------5--L-----5-----|--3------------------||
--3---0-----3-----0--3--0--|--5---0-----5--L--0--5--0--|--3------------------||


  Chorus 3                                                  
                    PM PM                      PM PM  
  E.  S E  E  S E.  E  E     E.  S E  E  S E.  E  E   
--------------------------|--------------------------|
--------------------------|--------------------------|
--------------------------|--------------------------|
--------------------------|--------------------------|
--0---3----0--L-3---0--3--|--3---0----3--L-0---3--0--|
--0---3----0--L-3---0--3--|--3---0----3--L-0---3--0--|


                    PM PM                               
  E.  S E  E  S E.  E  E     Q    Q     Q    S  S S  S  
--------------------------|----------------------------|
--------------------------|----------------------------|
--------------------------|----------------------------|
--------------------------|----------------------------|
--5---0----5--L-0---5--0--|------------------3p-0------|
--5---0----5--L-0---5--0--|--6----5~----3---------5p-3-|


                    PM PM                      PM PM  
  E.  S E  E  S E.  E  E     E.  S E  E  S E.  E  E   
--------------------------|--------------------------|
--------------------------|--------------------------|
--------------------------|--------------------------|
--------------------------|--------------------------|
--0---3----0--L-3---0--3--|--3---0----3--L-0---3--0--|
--0---3----0--L-3---0--3--|--3---0----3--L-0---3--0--|


                    PM PM                             
  E.  S E  E  S E.  E  E     E  E  E  E  E  E  E  E   
--------------------------|--------------------------|
--------------------------|--------------------------|
--------------------------|--------------------------|
--------------------------|--------------------------|
--5---0----5--L-0---5--0--|--3--3--3--3--3--3--3--3--|
--5---0----5--L-0---5--0--|--3--3--3--3--3--3--3--3--|


  E  E  E  E  E  E  E  E     E  E  E  E  E  E  E  E   
--------------------------|--------------------------|
--------------------------|--------------------------|
--------------------------|--------------------------|
--------------------------|--------------------------|
--0--0--0--0--0--0--0--0--|--3--3--3--3--3--3--3--3--|
--0--0--0--0--0--0--0--0--|--3--3--3--3--3--3--3--3--|


  E  E  E  E  E  E  E  E     Q    Q    H         
--------------------------|---------------------|
--------------------------|---------------------|
--------------------------|---------------------|
--------------------------|---------------------|
--5--5--5--5--5--5--5-----|--3------------------|
--5--5--5--5--5--5--5--0--|--3------------------|


     Outro                                                                        
                                   PM PM PM   PM PM PM PM PM PM   PM PM PM    
     E.   S E  E   S E.  E   E     S  E  S  S S  S  S  S  E  S  S S  S  S   3x
||------------------------------|-------------------------------------------||
||------------------------------|-------------------------------------------||
||*-----------------------------|------------------------------------------*||
||*-----------------------------|------------------------------------------*||
||------------------------------|-------------------------------------------||
||---5b---3-L--5b--L-3---5b--3--|--0--0--0----0--0--0--0--0--0----0--0--0---||


  PM PM PM   PM PM PM PM PM PM   PM PM PM                      PM       
  S  E  S  S S  S  S  S  E  S  S S  S  S     E    E  E  E  E   E  Q     
------------------------------------------|----------------------------|
------------------------------------------|----------------------------|
------------------------------------------|----------------------------|
------------------------------------------|-----------------------3----|
------------------------------------------|----------5------------3----|
--0--0--0----0--0--0--0--0--0----0--0--0--|--0--3g6-----5--L~--0--3----|


  PM PM PM   PM PM PM PM PM PM   PM PM PM   
  S  E  S  S S  S  S  S  E  S  S S  S  S    
------------------------------------------||
------------------------------------------||
------------------------------------------||
------------------------------------------||
------------------------------------------||
--0--0--0----0--0--0--0--0--0----0--0--0--||




Melody Guitar

     Chorus

     E  E  E  E  E  E  E  E      E   E   E   E   E   E   E   E   
D||--------------------------|----------------------------------|
A||--------------------------|----------------------------------|
F||--7--7--7--7--7--7--7--7--|--10--10--10--10--10--10--10--10--|
C||--------------------------|----------------------------------|
G||--5--5--5--5--5--5--5--5--|---8---8---8---8---8---8---8---8--|
D||--------------------------|----------------------------------|


   E   E   E   E   E   E   E   E      Q     Q     Q    Q     
----------------------------------|-------------------------|
----------------------------------|-------------------------|
--12--12--12--12--12--12--12--12--|--13----12----10---------|
----------------------------------|-------------------------|
--10--10--10--10--10--10--10--10--|--11----10-----8---------|
----------------------------------|-------------------------|


  E  E  E  E  E  E  E  E      E   E   E   E   E   E   E   E   
--------------------------|----------------------------------|
--------------------------|----------------------------------|
--7--7--7--7--7--7--7--7--|--10--10--10--10--10--10--10--10--|
--------------------------|----------------------------------|
--5--5--5--5--5--5--5--5--|---8---8---8---8---8---8---8---8--|
--------------------------|----------------------------------|


   E   E   E   E   E   E   E   E      E   E   E   E   E   E   E   E   
----------------------------------|----------------------------------|
----------------------------------|----------------------------------|
--12--12--12--12--12--12--12--12--|--10--10--10--10--10--10--10--10--|
----------------------------------|----------------------------------|
--10--10--10--10--10--10--10--10--|---8---8---8---8---8---8---8---8--|
----------------------------------|----------------------------------|


  H        Q     E   E      H         E   E  Q     
------------------------|-------------------------|
----------------13--15--|--13---------L--15-------|
------------------------|-------------------------|
----------------10--12--|--10---------L--12-------|
------------------------|-------------------------|
------------------------|-------------------------|


   E   E   E   E   E   E   E   E    
----------------------------------||
----------------------------------||
--12--12--12--12--12--12--12--12--||
----------------------------------||
--10--10--10--10--10--10--10--10--||
----------------------------------||


     m.77                                    
     S  S S S S  S S S S  S S S S  S S S   
|--------------------------------------|
|--------------------------------------|
|--------------------------------------|
|--3h-5-5-5-3h-5-5-5-3h-5-5-5-3h-5-5-5-|
|--------------------------------------|
|--------------------------------------|




Duration Legend
---------------
W - whole
H - half
Q - quarter
E - 8th
S - 16th
|-n-|  - n-tuplets


Tablature Legend
----------------
L - tied note
h - hammer on
p - pull off
b - bend







Comments


Popular Pop Evil tabs & chords
100 In A 55 3 Chords
Last Man Standing Chords
Stepping Stone Chords
Suy Nghi Trong Anh Chords
100 In A 55 Tabs
Hey Mister Tabs
Last Man Standing Intro Tabs
Monster You Made 1 Tabs
100 In A 55 Ukulele
Last Man Standing Ukulele


Song lyrics



↑ Back to top | Tablatures and chords are parodies/interpretations of the original songs. You may use it for private study, scholarship, research or language learning purposes only
© 2014 AZChords.com Contact us | Privacy policy | DMCA | Add/correct tabs | Request tabs | Top 50 tabs