» » »

Pop Evil, Last Man Standing Bass tabs (ver.1)

Artists:  A B C D E F G H I J K L M N O P Q R S T U V W X Y Z # 

Last Man Standing Bass tabs (ver.1)

Pop Evil Tabs
 Rating:
4/5 (4 votes)
Last Man Standing lessons Tabs too difficult? Try these video lessons and learn fast
                -------------------------------------------------------------------------------
-------------------------------------------------------------------------------


Tuning: Drop C


      Intro - m.2                                                          
      E    E  E  E  E  E  Q       S E  S S S S S S E  S S S S S  
F||----------------------------|--------------------------------|
C||*---------------------------|--------------------------------|
G||*----------5----------------|--------------------------------|
C||---0--3g6-----5--L--0--3----|--0-0--0---0-0-0-0-0--0---0-0-0-|


  E    E  E  E  E  E  Q       S E  S S S S S S E  S S S S S  
---------------------------|--------------------------------|
-------------6--L-----5----|--5-5--5-L-5-5-5-6-6--6-L-6-6-6-|
----------5--------5-------|--------------------------------|
--0--3g6-------------------|--------------------------------|


  E    E  E  E  E  E  Q       E  E   Q    H         
---------------------------|-----------------------||
---------------------------|-----------------------||
----------5----------------|--5--L\----------------||
--0--3g6-----5--L--0--3----|-----------------------||


  Verse                                                                
  S E  S S S S S S E  S S S S S    S E  S S S S S S S S S S S S S  
--------------------------------|---------------------------------|
--------------------------------|---------------------------------|
--------------------------------|---------------------------------|
--1-0--0---0-0-0-1-0--0---0-0-0-|--1-0--0---0-0-0-1-1-1-1-3-3-3-3-|


  S E  S S S S S S E  S S S S S  
--------------------------------|
--------------------------------|
--------------------------------|
--1-0--0---0-0-0-1-0--0---0-0-0-|


                 (play 1st time only)...........                                
                 |--3--| |--3--| |--3--| |--3--|  
  S E  S S S S S S  S  S S  S  S S  S  S S  S  S  
-----------------3p-2p-0-------------------------|
-------------------------3p-2p-0-----------------|
---------------------------------3p-1p-0---------|
--1-0--0---0-0-0-------------------------3p-2p-0-|


  S E  S S S S S S E  S S S S S    S E  S S S S S E  E  E  E    
--------------------------------|------------------------------|
--------------------------------|------------------------------|
--------------------------------|--------------------5-----5\--|
--1-0--0---0-0-0-1-0--0---0-0-0-|--1-0--0---0-0-0-0-----0------|


  S E  S S S S S S E  S S S S S    S E  S S S S S S S S S S S S S  
--------------------------------|---------------------------------|
--------------------------------|---------------------------------|
--------------------------------|---------------------------------|
--1-0--0---0-0-0-1-0--0---0-0-0-|--1-0--0---0-0-0-1-1-1-1-3-3-3-3-|


  Pre-chorus                                                                
  S S S S S S S S S S S S S S S S    S S S S S S S S S S S S Q     
----------------------------------|-------------------------------||
----------------------------------|-------------------------------||
----------------------------------|-------------------------------||
--5-5-5-5-5-5-5-5-5-5-5-5-5-5-5-5-|--4-4-4-4-4-4-4-4-3-3-3-3-3----||


  Chorus                                                     
  E.  S E  E  S S E  E  E     E.  S E  E  S S E  E  E   
---------------------------|---------------------------|
---------------------------|---------------------------|
---------------------------|---------------------------|
--0---3----0--L-3----0--3--|--3---0----3--L-0----3--0--|


  E.  S E  E  S S E  E  E       Q    Q    E.  S S  S E   
---------------------------|----------------------------|
---------------------------|----------------------------|
---------------------------|--------------------3p-0----|
--5---0----5--L-0----5--0--|--5g6----5----3---0------5--|


  E.  S E  E  S S E  E  E     E.  S E  E  S S E  E  E   
---------------------------|---------------------------|
---------------------------|---------------------------|
---------------------------|---------------------------|
--0---3----0--L-3----0--3--|--3---0----3--L-0----3--0--|


  E.  S E  E  S S E  E  E     E  E  E  E  E  E  E  E   
---------------------------|--------------------------|
---------------------------|--------------------------|
---------------------------|--------------------------|
--5---0----5--L-0----5--0--|--3--3--3--3--3--3--3--5--|


  E  E  E  E  E  E  E  E     E  E  E  E  E  E  E  E   
--------------------------|--------------------------|
--------------------------|--------------------------|
--------------------------|--------------------------|
--0--0--0--0--0--0--3--0--|--3--3--3--3--3--3--3--3--|


  E  E  E  E  E  E  E  E     Q    Q    H             E  E  E  E  H         
--------------------------|----------------------||-----------------------|
--------------------------|---------------------*||-----------------------|
--------------------------|---------------------*||-----------------------|
--5--5--5--5--5--5--5--0--|--3-------------------||--0--0--L--0--L--------|


  Bridge                                                         
  W                   W                   W                 
-------------------|-------------------|-------------------|
-------------------|-------------------|-------------------|
-------------------|-------------------|-------------------|
-------------------|-------------------|-------------------|


  H         H            Q    Q    Q    Q       Q    Q    S S S S Q     
----------------------|----------------------|-------------------------|
----------------------|----------------------|-------------------------|
----------------------|----------------------|------------------5-L----|
-----------15\--------|--0----0----0----0----|--0----0----3-4-5--------|


  Q    Q    Q    Q       Q    Q    Q    Q       Q    Q    Q    Q     
----------------------|----------------------|----------------------|
----------------------|----------------------|----------------------|
----------------------|----------------------|----------------------|
--0----0----0----0----|--0----0----0----0----|--0----0----0----0----|


  Q    Q    S S S S Q       S S S S S S S S S S S S S S S S  
-------------------------|----------------------------------|
-------------------------|----------------------------------|
------------------5-L----|----------------------------------|
--0----0----3-4-5--------|--5-5-5-5-5-5-5-5-5-5-5-5-5-5-5-5-|


                                     Break Down                       
  S S S S S S S S S S S S S S S S    E.  S E  E  E  E  E  E   
----------------------------------|--------------------------|
----------------------------------|--------------------------|
----------------------------------|--------------------------|
--4-4-4-4-4-4-4-4-3-3-3-3-3-3-3-3-|--0---3----0--L--3--0--3--|


  E.  S E  E  E  E  E  E     E.  S E  E  E  E  E  E     E.  S E  E  E  E  Q     
--------------------------|--------------------------|-------------------------|
--------------------------|--------------------------|-------------------------|
--------------------------|--------------------------|-------------------------|
--0---3----0--L--3--0--3--|--0---3----0--L--3--0--3--|--0---3----0--L--3-------|


  E  E  E  E  Q    E  E     Q    E  E  Q    E  E     Q.     E  Q    E  E   
-------------------------|------------------------|-----------------------|
-------------------------|------------------------|-----------------------|
-------------------------|------------------------|-----------------------|
--0--0--0--0--L----0--3--|--3-------3--L----3--3--|--5------5--5----5--5--|


                         Chorus                                                     
  Q    Q    H            E.  S E  E  S S E  E  E     E.  S E  E  S S E  E  E   
---------------------||---------------------------|---------------------------|
---------------------||---------------------------|---------------------------|
---------------------||---------------------------|---------------------------|
--3------------------||--0---3----0--L-3----0--3--|--3---0----3--L-0----3--0--|


  E.  S E  E  S S E  E  E       Q    Q    E.  S S  S S  S  
---------------------------|------------------------------|
---------------------------|------------------------------|
---------------------------|--------------------3p-0------|
--5---0----5--L-0----5--0--|--5g6----5----3---0------5p-3-|


  E.  S E  E  S S E  E  E     E.  S E  E  S S E  E  E   
---------------------------|---------------------------|
---------------------------|---------------------------|
---------------------------|---------------------------|
--0---3----0--L-3----0--3--|--3---0----3--L-0----3--0--|


  E.  S E  E  S S E  E  E     E  E  E  E  E  E  E  E   
---------------------------|--------------------------|
---------------------------|--------------------------|
---------------------------|--------------------------|
--5---0----5--L-0----5--0--|--3--3--3--3--3--3--3--5--|


  E  E  E  E  E  E  E  E     E  E  E  E  E  E  E  E   
--------------------------|--------------------------|
--------------------------|--------------------------|
--------------------------|--------------------------|
--0--0--0--0--0--0--3--0--|--3--3--3--3--3--3--3--3--|


  E  E  E  E  E  E  E  E     Q    Q    H         
--------------------------|---------------------||
--------------------------|---------------------||
--------------------------|---------------------||
--5--5--5--5--5--5--5--0--|--3------------------||


     Outro                                                                
     E.   S E  E   S E.  E   E     S S S S S S S S S S S S S S S S  3x
||------------------------------|-----------------------------------||
||*-----------------------------|----------------------------------*||
||*-----------------------------|----------------------------------*||
||---5b---3-L--5b--L-3---5b--3--|--0-0---0---0-0-0-0-0---0---0-0-0--||


  S S S S S S S S S S S S S S S S    E  E  E  E  E  E  Q     
----------------------------------|-------------------------|
----------------------------------|-------------------------|
----------------------------------|--------5----------------|
--0-0---0---0-0-0-0-0---0---0-0-0-|--0--6-----5--L--0--3----|


  S S S S S S S S S S S S S S S S   
----------------------------------||
----------------------------------||
----------------------------------||
--0-0---0---0-0-0-0-0---0---0-0-0-||



Duration Legend
---------------
W - whole
H - half
Q - quarter
E - 8th
S - 16th

Tablature Legend
----------------
L - tied note
x - dead note
h - hammer on
p - pull off


            
Submit corrections

comments powered by Disqus
↑ Back to top | Pop Evil Bass for Last Man Standing. Lyrics for acoustic guitar and electric guitar. Tablatures and chords are parodies/interpretations of the original songs. You may use it for private study, scholarship, research or language learning purposes only