» » »

Poison, Every Rose Has It's Thorn Tabs (ver.3)

Artists:  A B C D E F G H I J K L M N O P Q R S T U V W X Y Z # 

Every Rose Has It's Thorn Tabs (ver.3)

Poison Tabs
 Rating:
4/5 (4 votes)
Every Rose Has It's Thorn lessons Tabs too difficult? Try these video lessons and learn fast
1
                "(2)

--
===============================
  band:   Poison

-------------------
^^=FULL OVER BEND
^=FULL SHARP BEND
~=MUFFLE THE NOTE,VIBRATE
b= BEND
/=SLIDE FORWARD
\=SLIDE BACKWARD
h=HAMMER
p=PULL OFF
()=GHOST NOTE
x=palm mute

intro:
(whisper)

( G   Cadd9 ) X2
   G   Cadd9
e -3--3-3----|
B -3--3-3----|(TRY TO HAMMER THE Cadd9 CHORD)
G -0--0-0----|
D -0--0h2----|
A -2--0h3----|
E -3--0h0----|

RHYTM timing
=============

verse:4/4
=====
co-verse:2/4
========
riff: 4/4
====
xxxxxxxxxxxxxxxxxxxxxxxxxxxxxxxxxxxxxxxxxxxxxxxxxxxxxxxxxxxxxxxxxxxxxxxxxxxxxxxxxxxxxxxxxxxx
VERSE:
======
       G                           Cadd9
We both lie silently still in the dead of the night
      G
Although we both lie close together
       Cadd9
We feel miles apart inside

co-verse:
=========
      G                    Cadd9
Was it something i said orsomething i did
  G                Cadd9
did my words not come out right

riff
====
       D
though i tried not to hurt u
       C
though i tried But i guess thats why they say

CHORUS:
======
   G
Every rose has its thorn
   Cadd9
just like every night has it's dawn
  G            D          C         G
just like every cowboy sings his sad sad song
   G                  Cadd9
Every rose has its thorn (THE Cadd9 is with a electric guitar )

guitar inerlude:
=================
 G   Cadd9      G
-----------------------------------------------------15^-15~~-----------|
-----15^-15~~-----------------13-12~h13r12~------------------12^12~~----|
-12~~--------------12-14-12-----------------14^-14~---------------------|
--------------12-14--------14-------------------------------------------|
------------------------------------------------------------------------|
------------------------------------------------------------------------|

verse2 ,riff and chorus(same as above)

bridge
  Em              D
Though it's been a while now
  C               G
i can still feel so much pain
  Em               D
like a knife that cuts you the wound heals
  C                             G...(CONTD..)
but the scar that scar remains.

solo:
=====

(rhytm pattern==  G Cadd9 X2)
(             == Em D C G X2)

G(contd.) Cadd9                    G     Cadd9
-------------------------------------------------------|
---------13-12-13-12-15^----15b----------------15------|~~~~=straight bend then roll
-----16^----------------14b---14^-12b\-----------------|
-14b---------------------------------------------------|
-------------------------------------------------------|
-------------------------------------------------------|

                            change in chord progression
                         ----------------------------------
Cadd9                                            Em
------------------------------------------------------|
-13-12---12-------------------------------------------|
-------14--14-12---14-12-14----11-12-11-11b-12b-------|
------------------------------------------------/14---|
------------------------------------------------------|
------------------------------------------------------|
      fast

=========
=========
    D      C       G         Em   D
-------------------15---15---15-----------------------|
----------------15^--15^--15^-------------------------|
--11b-12b-----------------------11b-12b---------------|
---------12/14^\------------------------12/14---------|
------------------------------------------------------|
------------------------------------------------------|
   C                                       G
-15-15h19p15h17p15----h19p15h17p15---15h17p15-15---|^full bend till fade
-----------------h17------------h17----------------|
---------------------------------------------------|
---------------------------------------------------|
---------------------------------------------------|
---------------------------------------------------|
       very fast
       =========

verse2:

  G  Cadd9
 -3--3-3-x---|
 -3--3-3-x---|
 -0--0-0-x---|
 -0--0h2-x---|
 -2--0h3-x---|
 -3--0-0-x---|

 Cadd9 G
 -3-3--3-x-|
 -3-3--3-x-|
 -0-0--0-x-|
 -2h0--0-x-|
 -3h0--3-x-|
 -0h0--2-x-|

co verse

Riff

Chorus


ENDING:
=======
 Cadd9       G
-------------3--|
-------------3--|
------0------0--|
-----2-2-----0--|
----3---(2)..2--|
--0----------3--|

(outro not included )
IF SOMEONE WANTS IT MAIL ME.

--------------------------
lyrics:

(shh....)(ahh......)
We both lie silently still in the dead of the night
Although we both lie close together
We feel miles apart inside
Was it something i said or something i did
did my words not come out right
though i tried not to hurt u
though i tried But i guess thats why they say

Every rose has its thorn
just like every night has it's dawn
just like every cowboy sings his sad sad song
Every rose has its thorn ...........
YEAH IT DOES

i listen to ur' favourite song palyin on the radio
i hear the dj say the games of easy come and easy go
but i wonder does he know
has he ever felt like this
n' i know that u'd be here right now
if i could have let u know somehow

Every rose has its thorn
just like every night has it's dawn
just like every cowboy sings his sad sad song
Every rose has its thorn

Though it's been a while now
i can still feel so much pain
like a knife that cuts you the wound heals
but the scar that scar remain........

i know i could have saved a love that night if i'd known what to say
instead of makin love we both made our seperate  ways
and now i hear u found somebody new
n that i meant that much to u
but to hear that tears me up inside and to see u cuts me like
a knife i guess

Every rose has its thorn
just like every night has it's dawn
just like every cowboy sings his sad sad song
Every rose has its thorn...

=======================================================
-------------------------------------------------------
any comments?

                          Any correction needed?

                                        goodbye
                  **********************************************************
"            
Submit corrections

comments powered by Disqus
↑ Back to top | Poison Tabs for Every Rose Has It's Thorn. Lyrics for acoustic guitar and electric guitar. 1 Tablatures and chords are parodies/interpretations of the original songs. You may use it for private study, scholarship, research or language learning purposes only