» » »

Poison, Every Rose Has It's Thorn Bass tabs (ver.1)

Artists:  A B C D E F G H I J K L M N O P Q R S T U V W X Y Z # 

Every Rose Has It's Thorn Bass tabs (ver.1)

Poison Tabs
 Rating:
3.4/5 (11 votes)
Every Rose Has It's Thorn lessons Tabs too difficult? Try these video lessons and learn fast
1
                
EVERY ROSE HAS ITS THORN (Bassline)





 

 

Gtr I (Eb Ab Db Gb) - 'Staff'


  Q=71
 4/4
  Gtr I
  W          W          W          W
|----------|----------|----------|------|
|----------|----------|----------|------|
|----------|----------|----------|------|
|----------|----------|----------|------|


  W          W          W          W
|----------|----------|----------|------|
|----------|----------|----------|------|
|----------|----------|----------|------|
|----------|----------|----------|------|


  W          W          W          W
|----------|----------|----------|------|
|----------|----------|----------|------|
|----------|----------|----------|------|
|----------|----------|----------|------|


  W          W          W          W
|----------|----------|----------|------|
|----------|----------|----------|------|
|----------|----------|----------|------|
|----------|----------|----------|------|


  W          W          W          H    S S S S S S E
|----------|----------|----------|------2-0-------0----|
|----------|----------|----------|------------2-----2--|
|----------|----------|----------|-3-------------------|
|----------|----------|----------|---------------------|


  H    S S E +Q     Q..   S E. S +Q     S E. +Q   S S S S +Q
|-----------------|-------------------|------------------------|
|-----------------|-------------------|------------------------|
|-----------------|-3-------3--3-(3)--|------------------------|
|-3----3---3-(3)--|-------3-----------|---3--(3)----3---3-(3)--|


  S E. +Q   S S S S +S  S E
|---------------------------|
|---------------------------|
|---3--(3)----3---3-(3)-3-2-|
|-----------3---------------|


  +S  E. +Q   S S S S +Q     S E. +Q   S S S S +Q
|--------------------------|------------------------|
|--------------------------|------------------------|
|-(2)----------------------|---3--(3)----3---3-(3)--|
|-----3--(3)----3---3-(3)--|-----------3------------|


  S E. +Q   S S S S +Q     S E. +Q   S S S S +Q     S E. +Q   S S S S +Q
|------------------------|------------------------|------------------------|
|------------------------|------------------------|------------------------|
|------------------------|---3--(3)----3---3-(3)--|-------------3---3-(3)--|
|---3--(3)----3---3-(3)--|-----------3------------|---3--(3)--3------------|


  S E. +Q   S S S S +Q     +S  E. +Q   S S S S +Q
|------------------------|--------------------------|
|------------------------|--------------------------|
|-------------3---3-(3)--|-(3)-5--(5)----5---5-(5)--|
|---3--(3)--3------------|-------------5------------|


  S E. +Q   S S S S S S S S
|-------------------2---0----|
|---------------2---------2--|
|---3--(3)----3--------------|
|-----------3----------------|


  +S  E. +Q   S S S S +Q     S E. +Q   S S S S +Q     S E. +Q   S S S S +Q
|--------------------------|------------------------|------------------------|
|-(2)----------------------|------------------------|------------------------|
|--------------------------|---3--(3)----3---3-(3)--|------------------------|
|-----3--(3)----3---3-(3)--|-----------3------------|---3--(3)----3---3-(3)--|


  S E. +Q   S S S S +Q     S E. +Q   S S S S +Q     S E. +Q   S S S S +Q
|------------------------|------------------------|------------------------|
|------------------------|------------------------|------------------------|
|---3--(3)----3---3-(3)--|-------------5---5-(5)--|---3--(3)--3------------|
|-----------3------------|---3--(3)---------------|-------------3---3-(3)--|


  S E. +Q   S S S S +Q     S E. +Q   S S S S S S S S
|------------------------|---------------------------|
|------------------------|---------------------------|
|------------------------|---3--(3)----3-3---3---3-5-|
|---3--(3)----3---3-(3)--|---------------------------|


  +S  E. +Q   S S S S +Q
|---------------------------|
|---------------------------|
|-(5)-7--(7)----5---5-(5)---|
|---------------------------|


  S E. +Q   S S S S +S  S E
|---------------------------|
|---------------------------|
|---3--(3)--3---------------|
|-------------3---3-(3)-3-2-|


  +S  E. +Q   S S S S +Q     S E. +Q   +S  S S S +Q
|--------------------------|---------------5---5-(5)--|
|-----2--(2)----0---0-(0)--|--------------------------|
|--------------------------|---3--(3)--(3)------------|
|-(2)----------------------|--------------------------|


  S E. +Q   S S S S +Q     S E. +Q   S S S S +S  S E
|------------------------|---------------------------|
|------------------------|---------------------------|
|------------------------|---3--(3)----3---3-(3)-3-2-|
|---3--(3)----3---3-(3)--|-----------3---------------|


  +S  E. +Q   S S S S +Q
|--------------------------|
|--------------------------|
|-(2)----------------------|
|-----3--(3)----3---3-(3)--|


  S E. +Q   S S S S +S  S E
|-----------------------2-0-|
|---------------------------|
|---3--(3)----3---3-(3)-----|
|-----------3---------------|


  +S  E. +Q   S E. +Q     S E. +Q   S S S S +S  S E
|-(0)-------------------|---------------------------|
|---------------0--(0)--|---------------------------|
|-----------------------|---3--(3)------------------|
|-----0--(0)------------|-------------3---3-(3)-3-2-|


  +S  E. +Q   S E. +Q     S E. +Q   S S S S +S  S E
|-----------------------|---------------------------|
|-----2--(2)----0--(0)--|---------------------------|
|-----------------------|---3--(3)--3-3---3-(3)-3-2-|
|-(2)-------------------|---------------------------|


  +S  E. +Q   +H       S E. +Q   +H
|--------------------|------------------|
|--------------------|------------------|
|-(2)----------------|---3--(3)--(3)----|
|-----3--(3)--(3)----|------------------|


  W          W          W          W
|----------|----------|----------|------|
|----------|----------|----------|------|
|----------|----------|----------|------|
|----------|----------|----------|------|


  W          H    S S S S S S S S   +S  E. +Q   S S S S +Q
|----------|--------2-0-------0---|--------------------------|
|----------|--------------2-----2-|-(2)----------------------|
|----------|----------------------|---------------3---3-(3)--|
|----------|----------------------|-----3--(3)---------------|


  S E. +Q   S S S S +Q     S E. +Q   S S S S +Q     S E. +Q   S S S S +S  S E
|------------------------|------------------------|-------------------------0-|
|------------------------|------------------------|-----------------------2---|
|-------------3---3-(3)--|---5--(5)----5---5-(5)--|---3--(3)----3---3-(3)-----|
|---3--(3)---------------|-----------5------------|-----------3---------------|


  +S  E. +Q   S S S S +Q
|-(0)----------------------|
|--------------------------|
|--------------------------|
|-----3--(3)----3---3-(3)--|


  S E. +Q   S S S S +S  S E   +S  E. +Q   S S S S +Q
|---------------------------|--------------------------|
|---------------------------|--------------------------|
|---3--(3)----3---3-(3)-3-5-|-(5)----------------------|
|-----------3---------------|-----3--(3)----3---3-(3)--|


  S E. +Q   S S S S +S  S E
|---------------------------|
|---------------------------|
|---3--(3)----3---3-(3)-3-2-|
|-----------3---------------|


  +S  E. +Q   S S S S +Q     S E. +Q   S S S S +S  S E
|--------------------------|----------------------------|
|--------------------------|-----------------------2-0--|
|-(2)-----------5---5-(5)--|---3--(3)-------------------|
|-----3--(3)---------------|-------------3---3-(3)------|


  +S  E. +Q   S S S S +S  S E   +S  E. +Q   +H
|-----------------------------|--------------------*|
|-(0)-------------------------|--------------------*|
|-----------------------------|-----3--(3)--(3)----*|
|-----3--(3)--3-3---3-(3)-3-3-|-(3)----------------*|




--------------------------------------------------------------------------------


Duration Legend
---------------
W - whole; H - half; Q - quarter; E - 8th; S - 16th; T - 32nd; X - 64th; a - acciaccatura
+ - note tied to previous; . - note dotted; .. - note double dotted
Uncapitalized letters represent notes that are staccato (1/2 duration)
Irregular groupings are notated above the duration line
Duration letters will always appear directly above the note/fret number it represents the
duration for.  Duration letters with no fret number below them represent rests.  Multi-
bar rests are notated in the form Wxn, where n is the number of bars to rest for.  Low
melody durations appear below the staff

Tablature Legend
----------------
 h   - hammer-on
 p   - pull-off
 b   - bend
 pb  - pre-bend
 r   - bend release (if no number after the r, then release immediately)
 /\  - slide into or out of (from/to "nowhere")
 s   - legato slide
 S   - shift slide
 - natural harmonic
[n]  - artificial harmonic
n(n) - tapped harmonic
 ~   - vibrato
 tr  - trill
 T   - tap
 TP  - trem. picking
 PM  - palm muting
\n/  - tremolo bar dip; n = amount to dip
 \n  - tremolo bar down
 n/  - tremolo bar up
/n\  - tremolo bar inverted dip
 =   - hold bend; also acts as connecting device for hammers/pulls
 <> - volume swell (louder/softer)
 x   - on rhythm slash represents muted slash
 o   - on rhythm slash represents single note slash

Misc Legend
-----------
 |  - bar
||  - double bar
||o - repeat start
o|| - repeat end
*|  - double bar (ending)
 :  - bar (freetime)
 $  - Segno
 &  - Coda
Tempo markers -  = BPM(8/16=s8/s16), where s8 = swing 8ths, s16 = swing 16ths



--------------------------------------------------------------------------------
            
Submit corrections

comments powered by Disqus
↑ Back to top | Poison Bass for Every Rose Has It's Thorn. Lyrics for acoustic guitar and electric guitar. 1 Tablatures and chords are parodies/interpretations of the original songs. You may use it for private study, scholarship, research or language learning purposes only