>
 >
Fallen Angel

Fallen Angel Guitar Tabs

Poison - Fallen Angel chords, tabs, tablatures, lyrics

Guitar lessons | Add/correct | Request | Top 50 tabs Artists:  A B C D E F G H I J K L M N O P Q R S T U V W X Y Z 0-9

Fallen Angel Guitar Tabs – Poison

CD, Sheet music, Poster

Do you like Fallen Angel? Share with your friends now
Bass TabsChordsDrum TabsTabsTabs v2Ukulele


Outro Solo is in E, just wing it.

-----3-----2-----|-3-----2-----3p2-|-----3-----2-----|-------3-3-2-0----------|
-----3-----3-----|-3-----3-----3---|-----3-----3-----|-3-----3-3-3---2--------|
-----------------|-----------------|-----------------|-2-------------^--------|
-----------------|-----------------|-----------------|---------------^--------|
-----------------|-----------------|-3-3---3-3---3-3-|---3-3---------^--------|
-3-3---3-3---3-3-|---3-3---3-3-----|-----------------|---------------^--------|
 play this 2x                                              3 the second time

-----3-----2-----|-3-----2-----3p2-|-----3-----2-----|-------3-3-2-0----------|
-----3-----3-----|-3-----3-----3---|-----3-----3-----|-3-----3-3-3---3--------|
-----------------|-----------------|-----------------|-2----------------------|
-----------------|-----------------|-----------------|------------------------|
-----------------|-----------------|-3-3---3-3---3-3-|---3-3------------------|
-3-3---3-3---3-3-|---3-3---3-3-----|-----------------|------------------------|
 guitar 1  (play   this and the below part in  unison as in the tab)

-3-3-3-3-3-3-3-3-|-3-3-3-3-3-3-3-3-|-----3-3-3-3-3-3-|------------------------|
-3-3-3-3-3-3-3-3-|-3-3-3-3-3-3-3-3-|-----3-3-3-3-3-3-|------------------------|
-----------------|-----------------|-----------------|------------------------|
-----------------|-----------------|-5---------------|-7-7-7-7-7-7-7-7--------|
-----------------|-----------------|-3---------------|-5-5-5-5-5-5-5-5--------|
-----------------|-----------------|-----------------|------------------------|
 guitar 2        (guitars 1 & 2 are rythym figure 1)

-----------------|-----------------|-----------------|------------------------|
-----------------|-----------------|-----------------|------------------15b---|
-----------------|-----------------|-----------------|-------12-14br-12-------|
-----------------|-----------------|-----------------|-12-14------------------|
-----------------|-----------------|-----------------|------------------------|
-----------------|-----------------|-----------------|------------------------|
 guitar 3 (lots o guitars)

-----------------|---------------------15b-|-15r------------------------------|
-15r-------------|-15----------------------|----------------15br--------------|
-----------------|----------12-14br-12-----|----------------------------------|
-----------------|----12-14----------------|----------------------------------|
-----------------|-------------------------|----------------------------------|
-----------------|-------------------------|----------------------------------|
 guitar 3 w/ rythym figure 1, 1 time

------------------------|------------|---3---3----|---------------------------|
------------------------|------------|---3---3----|---------------------------|
-----------14b-14-12-14-|------------|------------|-5-------------------------|
--------12--------------|-5----------|---------5--|-5-------------------------|
--12-14-----------------|-5----------|---------5--|-3-------------------------|
------------------------|-3----------|-3---3---3--|---------------------------|
                         here's where the verse kicks in

----------------|-------------|---3---3-----|---------|-----------------------|
--7-7-7-8-7-----|-------------|---3---3-----|---------|---7-7-8-7-x-----------|
--7-7-7-7-7-7---|-------------|-------------|-5-------|-5-7-7-7-7-x-----------|
--7-7-7-7-7-7-5-|-5-----------|-------------|-5-------|-5-7-7-7-7-x-5---------|
--5-5-5-5-5-5-5-|-5-----------|---------5---|-3-------|-3-5-5-5-5-x-5---------|
--------------3-|-3-----------|-3---3---3---|---------|-------------3---------|


----3-3-3-2-3--|-3-3-3-2-2-2-3p2-|---3-3-3-2-2---|----------------------------|
----3-3-3-3-3-2|-3-3-3-3-3-3-3-3-|---3-3-3-3-3---|---------8-7----------------|
--------------3|-----------------|-5-----------7-|-7-7-7-7-7-7-7--------------|
--5------------|-----------------|-5-----------7-|-7-7-7-7--------------------|
--5------------|-----------------|-3-----------5-|-5-5-5-5--------------------|
--3------------|-----------------|---------------|----------------------------|


----3-3-3-2---|-3-3-3-2-2-2-3p2-|---3-3-3-2-2---|-----------------------------|
----3-3-3-3-3-|-3-3-3-3-3-3-3-3-|---3-3-3-3-3---|-----------------------------|
------------2-|-----------------|-5-----------7-|-7-7-7-7-7-7-7---------------|
--5-----------|-----------------|-5-----------7-|-7-7-7-7-7-7-7---------------|
--5-----------|-----------------|-3-----------5-|-5-5-5-5-5-5-5-x-------------|
--3-----------|-----------------|---------------|-----------------------------|


--------------|-----------------|-----------|-10---------|--------------------|
--8-----------|---8---8-x-------|-----------|-8--9-9-7---|--------------------|
--9-----------|---9---7-x-7-7---|-7-9-9-9-7-|----7-7-7-5-|-5------------------|
--9-----------|---9---9-x-7-7---|-7-7-7-7-7-|----------5-|-5------------------|
--7-----------|-7---7-----------|-----------|----------3-|-3------------------|
--------------|-----------------|-----------|------------|--------------------|
 pre-chorus

----3---3---|---------------|-------------|-----3---2---|-3-3-2-2-2-3p2-------|
----3---3---|-------8-8-7---|-----8-8-7---|-----3---3---|-3-3-3-3-3-3-3-------|
------------|-------7-7-7---|-----7-7-7---|-------------|---------------------|
------------|----7----------|---7---------|-------------|---------------------|
--3---3---5-|-5-----------5-|-5-----------|-------------|---------------------|
------------|---------------|-----------2-|-3-3---3---3-|---------------------|
                                            chorus

------3-3-2---|-----------------|--------|---------|---------7-----------------|
--------------|-----------------|--------|---------|-----8-----8---------------|
--5-5---------|-----------------|--------|---------|-------9-----9-------------|
--5-5-------7-|-7-7-7-7-7-7-7---|-5------|-5-------|---9-----------9-----------|
--3-3-------5-|-5-5-5-5-5-5-5---|-5------|-5-------|-7-------------------------|
--------------|---------------2-|-3------|-3-------|---------------------------|
    repeat verse after end 1      ending 1----      ending 2-------------------|

---------7-------|------------------|------------------------|----------------|
-----8-----8-----|------7---8-7-----|-------7-----8--7-------|-----5---6-5----|
-------9-----9---|--------7-----7---|----------7--------7----|-------5-----6--|
---9-----------9-|----7-----------7-|----7-----------------7-|---5----------5-|
-7---------------|--5---------------|-5----------------------|-3--------------|
-----------------|------------------|------------------------|----------------|
 guitar 1 (another overdub here)

-----------------|------------------|------------------------|----------------|
-----------------|------------------|------------------------|----------------|
-----------------|------------------|-14b-14-12-14br---------|12--------------|
-----------------|------------------|------------------------|----------------|
-----------------|------------------|------------------------|----------------|
-----------------|------------------|------------------------|----------------|
 guitar 2

--------------|--------------|----------------|-------------------------------|
------7-5---7-|-7-7-7-7-7----|----------------|-------------------------------|
----------7-7-|-7-7-7-7-7-7b-|-7------------x-|-------------------------------|
----7-------7-|-7-7-7-7-7----|----------------|-7b-x-10b-3b-------------------|
--5-----------|--------------|----------------|-------------------------------|
--------------|--------------|----------------|-------------------------------|
                               guitar solo!

--------------|------------|-----------|-----------|--------------------------|
--------------|------------|-----------|-----------|--------------------------|
--------------|------4-7-4-|-7b--------|-7-4-7-4---|-7b-------7b-7b-7b--------|
--3-----------|-3-3--------|-----------|-----------|--------------------------|
--------------|------------|-----------|-----------|--------------------------|
--------------|------------|-----------|-----------|--------------------------|


----------|-17b---17b--17b-|-17b------17----|---------------------------------|
----------|----------------|----------------|----------------12-15-17-15-17b--|
--7-------|----------------|----------------|----------11-14------------------|
----------|----------------|----------------|----12-14------------------------|
----------|----------------|-------------12-|-14------------------------------|
----------|----------------|----------------|---------------------------------|


--17------|-22b-----22b----|-22b-22b-22b-22b-15-|-17-15----15-19-15-----------|
-----15---|----------------|--------------------|-------17----------17--------|
----------|----------------|--------------------|-----------------------------|
----------|----------------|--------------------|-----------------------------|
----------|----------------|--------------------|-----------------------------|
----------|----------------|--------------------|-----------------------------|
                                                 this measure 2x

--19-17-15-----17-15----------------------------------|-----------------------|
----------19-17-----19-17-19-17-15--------------------|-----------------------|
----------------------------------17-16--16-14-12--12-|-12--------------------|
---------------------------------------19--------16---|-----------------------|
------------------------------------------------------|-----------------------|
------------------------------------------------------|-----------------------|
                                                       (play intro overdub)

------------------------|------------------|----------------------------------|
------------------------|------------------|----------------------------------|
-12-------12-14br-12----|-14b--------------|----------------------------------|
----12-14------------14-|------------------|----------------------------------|
------------------------|------------------|----------------------------------|
------------------------|------------------|----------------------------------|
                          (hold 4 measures)





Comments


Popular Poison tabs & chords
Look But You Can't Touch Bass Tabs
Ride The Wind Bass Tabs
Only Time Will Tell Chords
Something To Believe In 2 Chords
Fire And Ice 1 Tabs
I Want Action Tabs
Talk Dirty To Me Tabs
Talk Dirty To Me 4 Tabs
Wishful Thinkin Tabs
Only Time Will Tell Ukulele


Song lyrics



↑ Back to top | Tablatures and chords are parodies/interpretations of the original songs. You may use it for private study, scholarship, research or language learning purposes only
© 2014 AZChords.com Contact us | Privacy policy | DMCA | Add/correct tabs | Request tabs | Top 50 tabs