» » »

P.O.D., One Day Tabs (ver.1)

Artists:  A B C D E F G H I J K L M N O P Q R S T U V W X Y Z # 

One Day Tabs (ver.1)

P.O.D. Tabs
 Rating:
4/5 (4 votes)
One Day lessons Tabs too difficult? Try these video lessons and learn fast
1
                Dropped D tuning 

Intro: 4x ("The deeper and deeper…") 
E---------------------------------------------------------------- 
B--3-3-3-3-3-3-----------------4-4-4-4-4-4--1-1-1-1-1-1- 
G---------------2-3-3-3-3-3-3-------------------------------- 

Verse: 4x ("Forgive me") 
E------------------------------- 
B------------------------------- 
G-----------6---6-6-6-6-6-5- 
D-0---0-0--------------------- 
A-0---0-0-4---4-4-4-4-4-3- 
E-0---0-0--------------------- 

Verse 2: 2x ("And all I see…") 
E------------------------------------------------------ 
B------------------------------------------------------ 
G-----------8---8-8-8-8-8----------6---6-6-6-6-6- 
D-0---0-0------------------0---0-0------------------ 
A-0---0-0-6---6-6-6-6-6-0---0-0-4---4-4-4-4-4- 
E-0---0-0------------------0---0-0------------------ 

Verse 3: 3x ("The deeper and deeper…") 
E------------------------ 
B----------------------- 
G----------------------- 
D-0---0-0-0----0-0-3- 
A-0---0-0-0----0-0-3- 
E-0---0-0-0----0-0-3- 

Then: 
E------------------ 
B------------------ 
G------------------ 
D-2-3-5-7-9-10- 
A-2-3-5-7-9-10- 
E-2-3-5-7-9-10- 

(Verse 3, 2 or 3 more times) 
(Verse 1) 
(Verse 2) 
(Intro once) 

This part is very heavily distorted on the Live album. I can't really tell what Marcos is doing. Try something like this (With periodic rakes in between.): 
E---------------------- 
B--------------------- 
G--------------------- 
D-0-1-1-2-0-1-1-2- 
A-0-1-1-2-0-1-1-2- 
E-0-1-1-2-0-1-1-2- 

The "I can't do a thing unless I'm living for the King" part is just bass. 

Bridge: 2x 
E------------------------------------------------------ 
B------------------------------------------------------ 
G-6-6---------6-6-------------6----6-6-6-6-6-5-5- 
D------1-1-1------1-1-1-0-------------------------- 
A-4-4-1-1-1-4-4-1-1-1-0---4----4-4-4-4-4-3-3- 
E------1-1-1------1-1-1-0-------------------------- 

(Verse 1) 
(Verse 2) 
(Bridge) 
(Verse 1) 

Then outro is this: 
E---------------------------- 
B---------------------------- 
G-6-6---------6-6---------- 
D------1-1-1------1-1-1-0- 
A-4-4-1-1-1-4-4-1-1-1-0- 
E------1-1-1------1-1-1-0- 

The Marcos throws on a, I guess, chorus/flange/wah-wah pedal. And plays some, I think, reggae style chords. I don't have a clue what he's playing.
            
Submit corrections

comments powered by Disqus
↑ Back to top | P.O.D. Tabs for One Day. Lyrics for acoustic guitar and electric guitar. 1 Tablatures and chords are parodies/interpretations of the original songs. You may use it for private study, scholarship, research or language learning purposes only