» » »

Kaliforn-eye-a Tabs (ver.1)

Artists:  A B C D E F G H I J K L M N O P Q R S T U V W X Y Z # 

Kaliforn-eye-a Tabs (ver.1)

P.O.D.
Rating:
0/5 (0 votes)

Hard to play? Try these video lessons and learn fast.
                
-------------------------------------------------------------------------------
----------------------------------------------------------------------------

hello everyone this is mt first tab i hope you enjoy it if you have questions 

Tuning:drop d

e|---------------------------------------------------------------------------|
B|---------------------------------------------------------------------------|
G|---------------------------------------------------------------------------|
D|---------------------------------------------------------------------------| 
A|---------------3-3-3-3-3-3-3-----------------------------------------------|
D|-0---X-X-X-X------------------0-x-x-x-x-3-3-3-3-3-3-3----------------------|	|
										X6	
e|---------------------------------------------------------------------------|	|
B|---------------------------------------------------------------------------|
G|---------------------------------------------------------------------------|
D|---------------------------------------------------------------------------|
A|--|---------------3-3-3-3-3-3-3------5-3--2--------------------------------|
D|-0---X-X-X-X--------------------------------3---5-3-2-0--------------------|

e|---------------------------------------------------------------------------|
B|---------------------------------------------------------------------------|
G|---------------------------------------------------------------------------|
D|-----8---------------10---------------7-8-7----------10b-------------------|
A|-5-8---8-5-8----7-10----10-7-10---5-8-------8-5-5-8------------------------|
D|---------------------------------------------------------------------------|

chorus

e|---------------------------------------------------------------------------|
B|---------------------------------------------------------------------------|
G|---------------------------------------------------------------------------|
D|-0-0--10-10-10-0-0-10-10-10--0-0-10-10-10--3-3-3-3-------------------------|	X2
A|-0-0--10-10-10-0-0-10-10-10--0-0-10-10-10--3-3-3-3-------------------------|
D|-0-0--10-10-10-0-0-10-10-10--0-0-10-10-10--3-3-3-3-------------------------|

e|---------------------------------------------------------------------------|
B|---------------------------------------------------------------------------|
G|---------------------------------------------------------------------------|
D|---------------------------------------------------------------------------| 
A|---------------3-3-3-3-3-3-3-----------------------------------------------|
D|-0---X-X-X-X------------------0-x-x-x-x-3-3-3-3-3-3-3----------------------|	|
										X6	
e|---------------------------------------------------------------------------|	|
B|---------------------------------------------------------------------------|
G|---------------------------------------------------------------------------|
D|---------------------------------------------------------------------------|
A|--|---------------3-3-3-3-3-3-3------5-3--2--------------------------------|
D|-0---X-X-X-X--------------------------------3---5-3-2-0--------------------|

e|---------------------------------------------------------------------------|
B|---------------------------------------------------------------------------|
G|---------------------------------------------------------------------------|
D|-----8---------------10---------------7-8-7----------10b-------------------|
A|-5-8---8-5-8----7-10----10-7-10---5-8-------8-5-5-8------------------------|
D|---------------------------------------------------------------------------|

chorus

e|---------------------------------------------------------------------------|
B|---------------------------------------------------------------------------|
G|---------------------------------------------------------------------------|
D|-0-0--10-10-10-0-0-10-10-10--0-0-10-10-10--3-3-3-3-------------------------|	X4
A|-0-0--10-10-10-0-0-10-10-10--0-0-10-10-10--3-3-3-3-------------------------|
D|-0-0--10-10-10-0-0-10-10-10--0-0-10-10-10--3-3-3-3-------------------------|


e|---------------------------------------------------------------------------|
B|---------------------------------------------------------------------------|
G|---------------------------------------------------------------------------|
D|--7-9-10-7-5---7-9-10-7---7-7-7---10-10-10---------------------------------|	X3
A|--5-7-8--5-3---5-7-8--5---7-7-7---10-10-10---------------------------------|
D|--------------------------7-7-7---10-10-10---------------------------------|

chorus

e|---------------------------------------------------------------------------|
B|---------------------------------------------------------------------------|
G|---------------------------------------------------------------------------|
D|-0-0--10-10-10-0-0-10-10-10--0-0-10-10-10--3-3-3-3-------------------------|	X4
A|-0-0--10-10-10-0-0-10-10-10--0-0-10-10-10--3-3-3-3-------------------------|
D|-0-0--10-10-10-0-0-10-10-10--0-0-10-10-10--3-3-3-3-------------------------|

e|---------------------------------------------------------------------------|
B|---------------------------------------------------------------------------|
G|---------------------------------------------------------------------------|
D|-----8---------------10----------------8-----------------------------------|
A|-5-8---8-5-8----7-10----10-7-10---5-8----8-5-------------------------------|
D|---------------------------------------------------------------------------|
till the song is over



| /  slide up
| \  slide down
| h  hammer-on
| p  pull-off
| ~  vibrato
| +  harmonic
| x  Mute note
| b  bend
===============================================================================
            
Hard to play? Try these video lessons and learn fast. | Correct




comments powered by Disqus
↑ Back to top | Tablatures and chords are parodies/interpretations of the original songs. You may use it for private study, scholarship, research or language learning purposes only