» » »

P.O.D., Full Color Bass tabs (ver.1)

Artists:  A B C D E F G H I J K L M N O P Q R S T U V W X Y Z # 

Full Color Bass tabs (ver.1)

P.O.D. Tabs
 Rating:
4/5 (4 votes)
Full Color lessons Tabs too difficult? Try these video lessons and learn fast
                *solo (1:31)
G:|------------------------------------------|------------|
D:|------------------------------------------|------------|
A:|-----3h5-0---0-1-1--0--0-00--3h5-0-1------|-----5-3----|
D:|0-00------------------5--------------3-1-0|--3h5-------|

G:|--------------------------------------|
D:|--------------------------------------|
A:|----------------------------------0---|
D:|0-0-0-0-0----0-0-0-0-0-----3-3-3-3--3-|

G:|--------------------------------------------|
D:|--------------------------------------------|
A:|-----------------------1----1----1----1----1|
D:|8-7-5-3-2---2-2-2-2-2-----------------------|

G:|------------------------------------------|
D:|------------------------------------------|
A:|-----3h5-0---0-1-1--0--0-00--3h5-0-1------|
D:|0-00------------------5--------------3-1-0|

G:|--------------------------------------|
D:|--------------------------------------|
A:|----------------------------------0---|
D:|0-0-0-0-0----0-0-0-0-0-----3-3-3-3--3-|

G:|--------------------------------------------|
D:|------------00-00-00----------------00-00-00|
A:|--------------------------------------------|
D:|00-00-00----------------00-00-00------------|

G:|-------------------|
D:|-------------------|
A:|--------55-66-55-66|
D:|0-00-00------------|

G:|--------------------|
D:|-------3----5----7--|
A:|--------------------|
D:|0-0-0----3----5----7|

G:|------|
D:|------|
A:|------|
D:|0--3-1|

G:|--------------------|
D:|--------------------|
A:|--------------------|
D:|0-0---3h5-5---5h7--7|

G:|---------------------|
D:|---------------------|
A:|---------------------|
D:|8-7-5-3-2---2-2-2-2-2|

G:|------------------------------------------|
D:|------------------------------------------|
A:|-----3h5-0---0-1-1--0--0-00--3h5-0-1------|
D:|0-00------------------5--------------3-1-0|

G:|---------|
D:|---------|
A:|---------|
D:|8-7-5-3-2|

Slap Solo @ Ending
G:|------3---3------3---3-----3-----3-----3----|
D:|3-------------------------------------------|
A:|--0-1--1-1--0-2-2--2---2-2---1-1---1-1---1-1|
D:|--------------------------------------------|
            
Submit corrections

comments powered by Disqus
↑ Back to top | P.O.D. Bass for Full Color. Lyrics for acoustic guitar and electric guitar. Tablatures and chords are parodies/interpretations of the original songs. You may use it for private study, scholarship, research or language learning purposes only