» » »

P.O.D., Freedom Fighters Tabs (ver.1)

Artists:  A B C D E F G H I J K L M N O P Q R S T U V W X Y Z # 

Freedom Fighters Tabs (ver.1)

P.O.D. Tabs
 Rating:
4/5 (4 votes)
Freedom Fighters lessons Tabs too difficult? Try these video lessons and learn fast
                Here is the song Freedom Fighters by P.O.D. It hasnt been tabbed yet so i decided to tab 
myself. Hope you like it!

*-Palm Mute
~-Hold

Intro:
D---------------------------------------------------------------------------|
A---------------------------------------------------------------------------|
F---------------------------------------------------------------------------|
C------------12~---------------------9--------------------------3-----------|
G------------12~---------------------9--------------------------3-----------|
C------------12~---------------------9--------------------------3-----------|

Verse:
D----------------------------------------------------------------------------|
A----------------------------------------------------------------------------|
F-------------------------------7h9p7----------------------------------5h7p7-|
C-2-2-2-5-5-5-10-10-10-7-7-7----7---------2-2-2-5-5-5-10-10-10-7-7-7---5-----|
G-2-2-2-5-5-5-10-10-10-7-7-7--------------2-2-2-5-5-5-10-10-10-7-7-7---------|
C-2-2-2-5-5-5-10-10-10-7-7-7--------------2-2-2-5-5-5-10-10-10-7-7-7---------|x4
* * * * * * *  *  *  * * *              * * * * * * *  *  *  * * *

Chorus:
D----------------------------------------------------------------------------|
A----------------------------------------------------------------------------|
F-5-5-5-55-5/7----------------------7-5---5-5-5-55-5/7-------------------7-5-|
C-5-5-5-55-5/7----2-2-3/4-3-2-2-3-4-5-3---5-5-5-55-5/7-2-2-3/4-3-2-2-3-4-5-3-|
G-3-3-3-33-3/5----2-2-3/4-3-2-2-3-4-5-3---3-3-3-33-3/5-2-2-3/4-3-2-2-3-4-5-3-|
C-----------------2-2-3/4-3-2-2-3-4--------------------2-2-3/4-3-2-2-3-4-----|

D----------------------------------------------------------------------------|
A----------------------------------------------------------------------------|
F-5-5-5-55-5/9----------------------7-5---5-5-5-55-5/7-------------------7-5-|
C-5-5-5-55-5/9----2-2-3/4-3-2-2-3-4-5-3---5-5-5-55-5/7-2-2-3/4-3-2-2-3-4-5-3-|
G-3-3-3-33-3/7----2-2-3/4-3-2-2-3-4-5-3---3-3-3-33-3/5-2-2-3/4-3-2-2-3-4-5-3-|
C-----------------2-2-3/4-3-2-2-3-4--------------------2-2-3/4-3-2-2-3-4-----|

Verse:
D----------------------------------------------------------------------------|
A----------------------------------------------------------------------------|
F-------------------------------7h9p7----------------------------------5h7p7-|
C-2-2-2-5-5-5-10-10-10-7-7-7----7---------2-2-2-5-5-5-10-10-10-7-7-7---5-----|
G-2-2-2-5-5-5-10-10-10-7-7-7--------------2-2-2-5-5-5-10-10-10-7-7-7---------|
C-2-2-2-5-5-5-10-10-10-7-7-7--------------2-2-2-5-5-5-10-10-10-7-7-7---------|x4
  * * * * * * *  *  *  * * *              * * * * * * *  *  *  * * *

Chorus:
D----------------------------------------------------------------------------|
A----------------------------------------------------------------------------|
F-5-5-5-55-5/7----------------------7-5---5-5-5-55-5/7-------------------7-5-|
C-5-5-5-55-5/7----2-2-3/4-3-2-2-3-4-5-3---5-5-5-55-5/7-2-2-3/4-3-2-2-3-4-5-3-|
G-3-3-3-33-3/5----2-2-3/4-3-2-2-3-4-5-3---3-3-3-33-3/5-2-2-3/4-3-2-2-3-4-5-3-|
C-----------------2-2-3/4-3-2-2-3-4--------------------2-2-3/4-3-2-2-3-4-----|

D----------------------------------------------------------------------------|
A----------------------------------------------------------------------------|
F-5-5-5-55-5/9----------------------7-5---5-5-5-55-5/7-------------------7-5-|
C-5-5-5-55-5/9----2-2-3/4-3-2-2-3-4-5-3---5-5-5-55-5/7-2-2-3/4-3-2-2-3-4-5-3-|
G-3-3-3-33-3/7----2-2-3/4-3-2-2-3-4-5-3---3-3-3-33-3/5-2-2-3/4-3-2-2-3-4-5-3-|
C-----------------2-2-3/4-3-2-2-3-4--------------------2-2-3/4-3-2-2-3-4-----|

Interlude:
D---------------5--------------------------------------------------------------|
A-------5---------------7-------7^---------------------------------------------|
F------------------------------------------7-----------------------------------|
C------------------------------------------------------------------------------|
G------------------------------------------------------------------------------|
C------------------------------------------------------------------------------|

lightly in the background
D------------------------------------------------------------------------------|
A-8-8-15-15-8-8-15-15-8-8-15-15-8-8-15-151515-8-8-15-15-8-8-15-15-8-8-151515---|
F-7-7-14-14-7-7-14-14-7-7-14-14-7-7-14-141414-7-7-14-14-7-7-14-14-7-7-141414---|
C------------------------------------------------------------------------------|
G------------------------------------------------------------------------------|
C------------------------------------------------------------------------------|

Chorus:
D----------------------------------------------------------------------------|
A----------------------------------------------------------------------------|
F-5-5-5-55-5/7----------------------7-5---5-5-5-55-5/7-------------------7-5-|
C-5-5-5-55-5/7----2-2-3/4-3-2-2-3-4-5-3---5-5-5-55-5/7-2-2-3/4-3-2-2-3-4-5-3-|
G-3-3-3-33-3/5----2-2-3/4-3-2-2-3-4-5-3---3-3-3-33-3/5-2-2-3/4-3-2-2-3-4-5-3-|
C-----------------2-2-3/4-3-2-2-3-4--------------------2-2-3/4-3-2-2-3-4-----|

D----------------------------------------------------------------------------|
A----------------------------------------------------------------------------|
F-5-5-5-55-5/9----------------------7-5---5-5-5-55-5/7-------------------7-5-|
C-5-5-5-55-5/9----2-2-3/4-3-2-2-3-4-5-3---5-5-5-55-5/7-2-2-3/4-3-2-2-3-4-5-3-|
G-3-3-3-33-3/7----2-2-3/4-3-2-2-3-4-5-3---3-3-3-33-3/5-2-2-3/4-3-2-2-3-4-5-3-|
C-----------------2-2-3/4-3-2-2-3-4--------------------2-2-3/4-3-2-2-3-4-----|

Breakdown:
D----------------------------------------------------------------------------|
A-8-8h10-8h10-8-7-8h10-8h10-8h10-8-7-8h10-8h10-8-7-8h10-8h10-10-10/12--------|
F----------------------------------------------------------------------------|
C----------------------------------------------------------------------------|
G----------------------------------------------------------------------------|
C----------------------------------------------------------------------------|x2

D----------------------------------------------------------------------------|
A-12-12h15-12h15-12-10-12h15-12h15-12-10-12h15-12-10-12h15-12-10-12h15-12h15-|
F----------------------------------------------------------------------------|
C----------------------------------------------------------------------------|
G----------------------------------------------------------------------------|
C----------------------------------------------------------------------------|x2

D-----------------------------------------------------------------------------|
A-12-8-12h15-12h15-12-8-12h15-12h15-12-10-12h15-12h15-12-10-12h15-12--------8-|
F-----------------------------------------------------------------------------|
C-----------------------------------------------------------------------------|
G-----------------------------------------------------------------------------|
C-----------------------------------------------------------------------------|

Outro:
D----------------------------------------------------------------------------|
A----------------------------------------------------------------------------|
F--------------------5---------------------------5~--------------------------|
C-----2--------------3--------------2------------5~--------------------------|
G-----2--------------3--------------2------------3~--------------------------|
C-----2-----------------------------2----------------------------------------|
            
Submit corrections

comments powered by Disqus
↑ Back to top | P.O.D. Tabs for Freedom Fighters. Lyrics for acoustic guitar and electric guitar. Tablatures and chords are parodies/interpretations of the original songs. You may use it for private study, scholarship, research or language learning purposes only