» » »

P.O.D., Follow Me Bass tabs (ver.1)

Artists:  A B C D E F G H I J K L M N O P Q R S T U V W X Y Z # 

Follow Me Bass tabs (ver.1)

P.O.D. Tabs
 Rating:
4/5 (4 votes)
Follow Me lessons Tabs too difficult? Try these video lessons and learn fast
                Band- Pod
Song- Follow Me

G:|------------------------------------|
D:|------------------------------------|
A:|------------------------------------|
D:|2-2--2----2-2--2----2-2--2----2-2--2|

G:|-----------------------------------------------------------------|
D:|-----------------------------------------------------------------|
A:|----------------------------------------8-10-8-7-5---------------|
D:|2-2--2--2-3-0---2-2--2--2-3-0---2-2--2--------------2-2--2--2-3-0|

G:|-----------------|
D:|-----------------|
A:|-------5-7-------|
D:|2-2--2-----2-2--2|

G:|------------------
D:|-----------------
A:|-----------------
D:|2(ringing)--------

G:|----------------------------------|
D:|----------------------------------|
A:|-------2/7-----------2/5--5-5-----|
D:|2-2--2--------2-2--2-----------9/0|

G:|----------------------------------|
D:|----------------------------------|
A:|----------^7^--------------7-5-7-5|
D:|2-2--2--2--------2-2--2--2--------|

G:|-------|
D:|----2--|
A:|-------|
D:|2x?----| 

G:|------------|
D:|------------|
A:|-------3-5-2|
D:|2-2--2------|

G:|-----------------|
D:|-----------------|
A:|-------5-7-------|
D:|2-2--2-----2-2--2|

G:|------------------|
D:|------------------|
A:|-------5-7-5------|
D:|2-2--2------2-2--2|

G:|----------------------------------|
D:|----------------------------------|
A:|----------^7^--------------7-5-7-5|
D:|2-2--2--2--------2-2--2--2--------|

G:|-------|
D:|----2--|
A:|-------|
D:|2x?----|

G:|------------|
D:|------------|
A:|-------3-5-2|
D:|2-2--2------|

(guit, and drums, then bass comes in)
G:|-------------|
D:|-------------|
A:|-------------|
D:|2-2--0--0-3-2|

G:|-----------------|   }
D:|-----------------|   |
A:|-------5-7-------|   | He plays these two lines in sets, 
D:|2-2--2-----2-2--2|   | play the first line once. then 
                        | the second line however many 
G:|------------------|  | times, then repeat.
D:|------------------|  |
A:|-------5-7-5------|  |
D:|2-2--2------2-2--2|  }

G:|-------|
D:|----2--|
A:|-------|
D:|2x?----|

G:|------------|
D:|------------|
A:|-------3-5-2|
D:|2-2--2------|


KEY O==ºº

^7^ = Bend note out of pitch, then bring it back to pitch
2x? = In this case, play the 2 however many times
            
Submit corrections

comments powered by Disqus
↑ Back to top | P.O.D. Bass for Follow Me. Lyrics for acoustic guitar and electric guitar. Tablatures and chords are parodies/interpretations of the original songs. You may use it for private study, scholarship, research or language learning purposes only