» » »

Bullet The Blue Skies Bass tabs (ver.1)

Artists:  A B C D E F G H I J K L M N O P Q R S T U V W X Y Z # 

Bullet The Blue Skies Bass tabs (ver.1)

P.O.D.
Rating:
0/5 (0 votes)

Hard to play? Try these video lessons and learn fast.
                Line1
G:|-------------------------|
D:|-------------------------|
A:|--5p3--------------3--3h5|
D:|0-----0--0h3--0-5h7------|

Chorus
G:|---------------------|
D:|---------------------|
A:|5------5------3h5-5-6|
D:|--0-0----0-0---------|

Line2
G:|---------------------------|
D:|---------------------------|
A:|--5p3------3----3h5-3---3h5|
D:|0-----0--0---0-------------|

He plays Line1 up until the chorus, then after that
he switches around bewteen the two lines.  I couldn't
figure out exactly what he is playing, but that should be
pretty close.  If you listen close you'll hear 
differences in the lines, especially in the last two
minutes.
            
Hard to play? Try these video lessons and learn fast. | Correct




comments powered by Disqus
↑ Back to top | Tablatures and chords are parodies/interpretations of the original songs. You may use it for private study, scholarship, research or language learning purposes only