» » »

In The Flesh! Tabs (ver.2)

Artists:  A B C D E F G H I J K L M N O P Q R S T U V W X Y Z # 

In The Flesh! Tabs (ver.2)

Pink Floyd
Rating:
0/5 (0 votes)

Hard to play? Try these video lessons and learn fast.
                (Intro)
PINK FLOYD/ IN THE FLESH

A)
 
D ----------
A -----0 2 3
E 0 2 3 ----   D A E

B)

  X4 X4 X4 X4 X4 X4 X4 X4
E 2--4--5--4--2--4--5--7-
B 3--5--6--5--3--5--6--8-
G 2--4--5--4--2--4--5--7-
D 0--0--0--0--0--0--0--0- 

C)

D -----------------
A 0-4-2-0----5-4-2-
E --------4-2------  X4

D -----------------
A -3-4-7-5-4-------
E -----------------  E A
            
Hard to play? Try these video lessons and learn fast. | Correct




comments powered by Disqus
↑ Back to top | Tablatures and chords are parodies/interpretations of the original songs. You may use it for private study, scholarship, research or language learning purposes only