» » »

In The Flesh! Chords (ver.1)

Artists:  A B C D E F G H I J K L M N O P Q R S T U V W X Y Z # 

In The Flesh! Chords (ver.1)

Pink Floyd
Rating:
0/5 (0 votes)

Hard to play? Try these video lessons and learn fast.
                In The Flesh?
By Pink Floyd

Note:Played with light distortion throughout
Intro
e---------------------------------------------------------------------------
B---------------------------------------------------------------------------
G-----------------------------------------------------------------12---7/9
D-----------------------------------------------------------------12---7/9
A-----------------------------------------0--2--3vvvvvvvvv-----10---5/7
E--------0------------2vvvvvvvvvv3vvv-------------------------------

e----------------0-------------0--------------------------------------------
B-------------0----3--------0---3-----------------------------------------
G------2^(4)---------2^(4)--------2^(4)-2--0--------------------------
D--------------------------------------------------2--0-----------------2--
A---------------------------------------------------------2-1-0------------
E------------------------------------------------------------------3--0----

e--------------------------------------------------------------------------
B--------------------------------------------------------------------------
G---7------9-----10-------9------7------9------10--------12----------
D---7------9-----10-------7------7------9------10--------12----------
A---5------7------8--------7-----5-------7-------8--------10-----------
E----------------------------------------------------------------------------

Riff A

e----------------------------------------------------------------------------
B---------------------------------------------------------------------------
G---------------------------------------------------------------------------
D---------------------------------------------------------------------------
A------0---2^(4)--2---0------------4^(5)--4----2---0---2^(4)--2---0
E----------------------------4-----2--------------------------------------

e----------------------------------
B----------------------------------
G----------------------------------
D----------------------------------
A---------------4^(5)----4----2--
E------4----2----------------------

Repeats one more time, then ends with this:

e------------------------------------------------------------------------
B------------------------------------------------------------------------
G------------------------------------------------------------------------
D------------------------------------------------------------------------
A---0--1-2-----4^(5)--4----2--3--4--5^(6)---5----2------------0-
E------------------------------------------------------------0---0-------

So ya
Thought ya
Might like to go to the show
The feel the warm thrill of confusion
That space cadet glow
Tell me is something eluding you sunshine?
Is this not what you expected to see?
If you want to find out what's behind these cold eyes
You'll just hafta claw you're way through this disguise

Riff A repeats again, with the ending
Notes: 2^(4):  bend one whole step
            5^(6)  bend  one half step
             vvvvvv:  vibrato
            
Hard to play? Try these video lessons and learn fast. | Correct




comments powered by Disqus
↑ Back to top | Tablatures and chords are parodies/interpretations of the original songs. You may use it for private study, scholarship, research or language learning purposes only