» » »

In The Flesh! Tabs (ver.1)

Artists:  A B C D E F G H I J K L M N O P Q R S T U V W X Y Z # 

In The Flesh! Tabs (ver.1)

Pink Floyd
Rating:
0/5 (0 votes)

Hard to play? Try these video lessons and learn fast.
                IN THE FLESH
As recorded by Pink FLoyd
(From the 1979 Album THE WALL)



 Words and Music by Roger Waters
Arranged by Roger Waters
 

Gtr I (E A D G B E) - 'Untitled'


 4/4
|--------------------------------0---------------------------------|
|-----------------8\-3-/5------0---3-0-----3-0---------------------|
|-----------------7\-2-/4--2h4---------2h4-----2-0-----------------|
|--------------------------------------------------2-0----------2v-|
|----------0-2-3v--------------------------------------2\1---------|
|-0--2v-3v--------------------------------------------------3-0----|


|-2-4-5-4--2-4-5-7-----------------------------------------------------|
|-3-5-6-5--3-5-6-8-----------------------------------------------------|
|-2-4-5-4--2-4-5-7-----------------------------------------------------|
|-0--------0---------------2--------------xx-----------2---------------|
|--------------------------0-2\4-2v-0-----xx-4\5-4v-2v-0-2\4-2v-0------|
|-------------------12\---------------4\2-xx----------------------4\2--|


|------------------------------------------------------------------------|
|------------------------------------------------------------------------|
|------------------------------------------------------------------------|
|xx-----------2---------------xx---------------xx----------------2-2-----|
|xx-4\5-4v-2v-0-2\4-2v-0-1-2v-xx-4\5-4v-2-3-4v-xx-5\7-5v-4---2-2-2-2-2-2-|
|xx---------------------------xx---------------xx----------4\0-0-----0-0-|


|-----------------------------------2-----------2--------------------|
|-----------2-----------2---------3---3-------3---3---------2--------|
|---------2---2-------2---2-----2-------2---2-------2-----2---2------|
|-2-2---2-------2---2-------2-0-----------0-------------2-------2----|
|-2-2-0-----------0-----------------------------------0--------------|
|--------------------------------------------------------------------|


|-------------------2-----------2--------------------------------|
|-------2---------3---3-------3---3---------2-----------2--------|
|-----2---2-----2-------2---2-------2-----2---2-------2---2------|
|---2-------2-0-----------0-------------2-------2---2-------2----|
|-0-----------------------------------0-----------0--------------|
|----------------------------------------------------------------|


|---------------------------------------------------------------------|
|-------3-----------3-----------5-----------5-------------------------|
|-----4---4-------4---4-------6---6-------6---6-----------------------|
|---4-------4---4-------4---6-------6---6--------------2-2-----2-2----|
|-2-----------2-----------4-----------4------------2-2-2-2-2-2-2-2----|
|-----------------------------------------------4\-0-0-----0-0--------|

Well I use a Marshall AVT 50 and here is my setting I suggest for this song:
CLEAN:   Gain = 5    Bass = 6    Treble = 4

Distorted:      Gain = 6    Bass = 9    Middle = 3 1\2    Treble = 6    Reverb = 6
            
Hard to play? Try these video lessons and learn fast. | Correct




comments powered by Disqus
↑ Back to top | Tablatures and chords are parodies/interpretations of the original songs. You may use it for private study, scholarship, research or language learning purposes only