» » »

Goodbye Cruel World Bass tabs (ver.3)

Artists:  A B C D E F G H I J K L M N O P Q R S T U V W X Y Z # 

Goodbye Cruel World Bass tabs (ver.3)

Pink Floyd
Rating:
0/5 (0 votes)

Hard to play? Try these video lessons and learn fast.
                I was wondering why nobody posted the tabs, Maybe they are too obvious ;)
Never-mind, I posted the lyrics so you can see exactly when you should play (although 
it's so simple you can play it while sleeping)

Tuning Standard

Intro:
|-----5------5-----------|
|------------------------|
|-5-------5--------------|
|------------------------|


|-----5--------------5----------------------------------------5---------------|
|---------------------------------5--------------5--------------------------5-|
|-5-------------5----------------------------------------5--------------------|
|----------------------------3-------------3---------------------------5------|
Goodbye cruel world    I'm leaving you today        Goodbye,      Goodbye,


|-----------5--|
|--------------|
|------5-------|
|--------------|
  Goodbye

(interlude) Play 2 Times

|-----5------5-----------|
|------------------------|
|-5-------5--------------|
|------------------------|

And then Play the whole (except the intro) again and end on :

|--------|
|--------|
|------5-|
|--------|

Hope you enjoy :)
            
Hard to play? Try these video lessons and learn fast. | Correct




comments powered by Disqus
↑ Back to top | Tablatures and chords are parodies/interpretations of the original songs. You may use it for private study, scholarship, research or language learning purposes only