» » »

Goodbye Cruel World Tabs (ver.1)

Artists:  A B C D E F G H I J K L M N O P Q R S T U V W X Y Z # 

Goodbye Cruel World Tabs (ver.1)

Pink Floyd
Rating:
0/5 (0 votes)

Hard to play? Try these video lessons and learn fast.
                  This is my first tab so go easy, but I attempted to tab the lyrics, just
play along with the singing and you'll get it.

-----------------------------------------------------------------------------
             D                       G                 D       A       D
e|--------------------------------------------------------------------------|
B|---7-----8-7--------------7------------3-------------7----7----------7----|
G|--------------7---------7----------4------------4------------6------------|
D|--------------------------------5-----------------------------------------|
A|-5---------5-------------------------5--------5------5-------------5------|
E|-----------------------------3-------------------------------5------------|


Repeat again but the second time play the very last note as 7 on the G string.
-----------------------------------------------------------------------------

Lyrics:

Goodbye cruel world,
I'm leaving you today.
Goodbye,
Goodbye,
Goodbye.

Goodbye, all you people,
There's nothing you can say
To make me change my mind.
Goodbye.
-----------------------------------------------------------------------------
            
Hard to play? Try these video lessons and learn fast. | Correct




comments powered by Disqus
↑ Back to top | Tablatures and chords are parodies/interpretations of the original songs. You may use it for private study, scholarship, research or language learning purposes only