» » »

Goodbye Cruel World Tabs (ver.2)

Artists:  A B C D E F G H I J K L M N O P Q R S T U V W X Y Z # 

Goodbye Cruel World Tabs (ver.2)

Pink Floyd
Rating:
0/5 (0 votes)

Hard to play? Try these video lessons and learn fast.
                D
|----------------------------------------------------------------------------|
|----------------------------------------------------------------------------|
|----------------------------------------------------------------------------|
|-----0------0---------------------------------------------------------------|
|----------------------------------------------------------------------------|
|-0-------0------------------------------------------------------------------|
Goodbye cruel world

    G
|-------------------------------------------------------------------------------|
|-------------------------------------------------------------------------------|
|-------------------------------------------------------------------------------|
|------5-----5------------------------------------------------------------------|
|-------------------------------------------------------------------------------|
|---5-----5---------------------------------------------------------------------|
I'm leaving you today

    D        A        D
|---------------------------------------------------------------------------------|
|---------------------------------------------------------------------------------|
|---------------------------------------------------------------------------------|
|-----0--------7---------0--------------------------------------------------------|
|---------------------------------------------------------------------------------|
|--0-------7----------0-----------------------------------------------------------|
Goodbye, Goodbye, Goodbye

(interlude)
D
|---------------------------------------------------------------------------------|
|---------------------------------------------------------------------------------|
|---------------------------------------------------------------------------------|
|-----0----0-----0-----0----------------------------------------------------------|
|---------------------------------------------------------------------------------|
|--0-----0----0-----0-------------------------------------------------------------|

D
|-------------------------------------------------------------------------------|
|-------------------------------------------------------------------------------|
|-------------------------------------------------------------------------------|
|----0-----0--------------------------------------------------------------------|
|-------------------------------------------------------------------------------|
|-0-----0-----------------------------------------------------------------------|
Goodbye all you people

        G
|-------------------------------------------------------------------------------|
|-------------------------------------------------------------------------------|
|-------------------------------------------------------------------------------|
|-----5-----5-------------------------------------------------------------------|
|-------------------------------------------------------------------------------|
|--5-----5----------------------------------------------------------------------|
There's nothing you can say

           D         A
|-------------------------------------------------------------------------------|
|-------------------------------------------------------------------------------|
|-------------------------------------------------------------------------------|
|---------0---------7-----------------------------------------------------------|
|-------------------------------------------------------------------------------|
|------0---------7--------------------------------------------------------------|
To make me change my mind

D
|------------------------------------------------------------------------------|
|------------------------------------------------------------------------------|
|------------------------------------------------------------------------------|
|------------------------------------------------------------------------------|
|------------------------------------------------------------------------------|
|-0----------------------------------------------------------------------------|
Goodbye.
            
Hard to play? Try these video lessons and learn fast. | Correct




comments powered by Disqus
↑ Back to top | Tablatures and chords are parodies/interpretations of the original songs. You may use it for private study, scholarship, research or language learning purposes only