>
 >
Another Brick In The Wall Part 2 3

Another Brick In The Wall Part 2 3 Guitar Tabs

Pink Floyd - Another Brick In The Wall Part 2 3 chords, tabs, tablatures, lyrics

Guitar lessons | Add/correct | Request | Top 50 tabs Artists:  A B C D E F G H I J K L M N O P Q R S T U V W X Y Z 0-9

Another Brick In The Wall Part 2 3 Guitar Tabs – Pink Floyd

CD, Sheet music, Poster

Do you like Another Brick In The Wall Part 2 3? Share with your friends now
Bass TabsTabsTabs v2Tabs v3Ukulele
Pink Floyd
Another Brick in the Wall Part II  Solo
Album "The Wall" 1979 

Tuning: normal

Guitar Solo:
============
e|-------------------------------10---------------10-----------------------|       
B|--------13p10----10---------10----13b(15)~~~~---10-10-10-------13b(15)---|        
G|--------------12----12b(14)---------------------10-10-10-----------------|         
D|-------------------------------------------------------------------------|         
A|-------------------------------------------------------------------------|        
E|-------------------------------------------------------------------------|
         
e|-------------------------------------------------------------------------|         
B|--13b(16)~r(13)~---13p10-------------------------------------------10----|        
G|-------------------------12-12b(14)r(12)--10p9----9-------12-------10----|         
D|-----------------------------------------------12---10s12----12~~--------|         
A|-------------------------------------------------------------------------|         
E|-------------------------------------------------------------------------|

e|---------------------------------------------------------13b(15)~~r(13)--|         
B|----10------10-10-----10-10-----10-12-10b~~(11)--------x-----------------|
G|----10------10-10-----10-10-----10-12-10b~~(11)------x-------------------|         
D|-------12---------12--------12-------------------------------------------|
A|-------------------------------------------------------------------------|         
E|-------------------------------------------------------------------------|

e|--13p12-13p12------------------------------------------------------------|         
B|-----------------------------------------------------x-------------------|
G|-------------------13b(15)b(16)~~b(17)r(13)b(15)-----x-------------------|         
D|-----------------------------one-note----------------x-------------------|
A|-------------------------------------------------------------------------|         
E|-------------------------------------------------------------------------|

e|------------10-----------------------------------------------------------|         
B|---------10----13p10-----------------------------------------------------|
G|--12b(14)------------12-12b(14)r(12)-10-12p10----10b-----12p10-----------|         
D|----------------------------------------------12-----12--12p10-----------|
A|---------------------------------------------------------------12-10-12--|         
E|-------------------------------------------------------------------------|

e|-------------------------------------------------------------------------|         
B|------------------------------------------------------5h6p5--------------|
G|------------------------------------------------5--7--------7-5p7---5b---|         
D|--------------------------------------------s7--------------------7------|
A|--(12)p10s8-10p8----------8----------------------------------------------|         
E|-----------------10p8-10----10p8-10s(3)----------------------------------|

e|-------------------------------------------------------------------------|        
B|---------6~~b(8)-----13b(15)~~r(13)-13b(15)b(16)r(13)~~------------------|        
G|--7--7p5-----------------------------------------------------------------|
D|-------------------------------------------------------------------------|        
A|-------------------------------------------------------------------------|         
E|-------------------------------------------------------------------------|

e|------15b(17)~~--13p10------13-12-15b(17)r(15)b(17)r(15)b(17)r(15)b(17)--|
B|----x-------------------s15----------------------------------------------|        
G|--x----------------------------------------------------------------------|
D|-------------------------------------------------------------------------|        
A|-------------------------------------------------------------------------|         
E|-------------------------------------------------------------------------|

e|--(17)r(15)-----18b(20)-(20)--20b~(22)~--20p17--20p17--------------------|        
B|------------15-----------------------------------------------------------|        
G|----------------------------------------------------------10-10-10b------|
D|---------------------------------------------------------------------12--|        
A|-------------------------------------------------------------------------|         
E|-------------------------------------------------------------------------|

e|-------------------------------------------------------------------------|        
B|--x-x-x-------13------12--12\s10------10--------x--x-x-------------------|        
G|--x-x-x-10s12-12-x-x--12--12\s10------10--------x--x-x-------------------|
D|--------12s14-14-x-x---------------------12--12--------------------------|        
A|-------------------------------------------------------10-8h10-10--8-----|         
E|---------------------------------------------------------------------10--|


 --------------------
| h   hammer-on      |
| p   pull-off       |
| b   bend           |
| r   bend release   |
| s   slide up/down  |
| ~   vibrato        |
 --------------------


#PlaceForTab


please rate





Comments


Popular Pink Floyd tabs & chords
Another Brick In The Wall Part 2 Bass Tabs
Apples And Oranges Chords
Don't Leave Me Now Chords
The Scarecrow Chords
When The Tigers Broke Free Chords
High Hopes Drum Tabs
Brain Damage 2 Tabs
Corporal Clegg 1 Tabs
Is There Anybody Out There? 2 Tabs
See Emily Play Ukulele


Song lyrics



↑ Back to top | Tablatures and chords are parodies/interpretations of the original songs. You may use it for private study, scholarship, research or language learning purposes only
© 2014 AZChords.com Contact us | Privacy policy | DMCA | Add/correct tabs | Request tabs | Top 50 tabs