» » »

Pink Floyd, Another Brick In The Wall () Bass tabs (ver.3)

Artists:  A B C D E F G H I J K L M N O P Q R S T U V W X Y Z # 

Another Brick In The Wall () Bass tabs (ver.3)

Pink Floyd Tabs
 Rating:
4/5 (4 votes)
Another Brick In The Wall () lessons Tabs too difficult? Try these video lessons and learn fast
1
                (Part)
Pink Floyd - Another Brick In The Wall Pt. 2

This is just a correction of an tab. (original Tab. Andreas Edel)

~ - let ring
/ - slide down

Intro
G *--------------------------------------------------------------------
D *--------------------------------------------------------------------
A *--------------------------------------------------------------------
D *---0~---------------------------------------------------------------

Main verse
G *--------------------------------------------------------------------
D *--------------------------------------------------------------------
A *-------3-5---5-5-0-3------------------------------------------------
D *---0----------------------------------------------------------------

G *--------------------------------------------------------------------
D *--------------------------------------------------------------------
A *------------------------3-/-----------------------------------------
D *---5~-5~---5--5---5-5-5---------------------------------------------

G *--------------------------------------------------------------------
D *--------------------------------------------------------------------
A *---5---3-5---5---5-0------------------------------------------------
D *---------------------5----------------------------------------------

Chorus
G *---------------*----------------------------------------------------
D *---------------*----------------------------------------------------
A *---------3-3-/-*-5---3-5---5---5-0----------------------------------
D *---3-3-/-------*-------------------5--------------------------------

During solo - figure out when to use which riff, it's not hard
G *-------------*---------------*--------------------------------------
D *-------------*-----7---------*--------------------------------------
A *---5---3-5---*---5---0-3-----*-------3-5----------------------------
D *-------------*---------------*---0----------------------------------

Listen to the song and you'll get it!
If you liked this, mail me. Salve!
            
Submit corrections

comments powered by Disqus
↑ Back to top | Pink Floyd Bass for Another Brick In The Wall (). Lyrics for acoustic guitar and electric guitar. 1 Tablatures and chords are parodies/interpretations of the original songs. You may use it for private study, scholarship, research or language learning purposes only