» » »

Another Brick In The Wall () Bass tabs (ver.2)

Artists:  A B C D E F G H I J K L M N O P Q R S T U V W X Y Z # 

Another Brick In The Wall () Bass tabs (ver.2)

Pink Floyd
Rating:
5/5 (6 votes)

Hard to play? Try these video lessons and learn fast.
                (Part1)
verse:
G|--------------------|
D|--------------------|
A|-----3-5--5--3-0-3--|
D|--0-----------------|

pre-chorus (x4):
G|-----------|
D|--0-0-0-0--|
A|-----------|
D|-----------|

chorus:
G|-----------------------------------|
D|--0-0-0-0-0-0-0-0------------------|
A|------------------3-3-3-3-3-3-3-3--|
D|-----------------------------------|
            
Hard to play? Try these video lessons and learn fast. | Correct




comments powered by Disqus
↑ Back to top | Tablatures and chords are parodies/interpretations of the original songs. You may use it for private study, scholarship, research or language learning purposes only