» » »

Love Is A Battlefield Bass tabs (ver.1)

Artists:  A B C D E F G H I J K L M N O P Q R S T U V W X Y Z # 

Love Is A Battlefield Bass tabs (ver.1)

Pat Benatar
Rating:
2/5 (1 vote)

Hard to play? Try these video lessons and learn fast.
                Pat Benatar- Love is a battlefield

This is a very very easy song to play but the bass line is cool, so i thought i would tab it. Enjoy! :)

Main bass line
G|-------------------------------|
D|-------------------------------|
A|-5-5-5-5-3-3-3-----------------|
E|---------------5-5-5-5-6-6-6-6-|

Interlude(guitar tabbed for bass)

G|-----------------------|
D|-----------------------|
A|-5-3-5-3-5-3-5-3-5-5-3-|
E|-----------------------|
 Pm --------------------|

Guitar solo 
G|----------------------------------------------------------|
D|----------------------------------------------------------|
A|-5-5-5-5-5-5-8-3-3-3-3-3-3-(slide up)---------------------|
E|--------------------------------------6-6-6-6-6-6-6-6-6-6-|
            
Hard to play? Try these video lessons and learn fast. | Correct




comments powered by Disqus
↑ Back to top | Tablatures and chords are parodies/interpretations of the original songs. You may use it for private study, scholarship, research or language learning purposes only