>
 >
Heartbreaker

Heartbreaker Guitar Tabs

Pat Benatar - Heartbreaker chords, tabs, tablatures, lyrics

Guitar lessons | Add/correct | Request | Top 50 tabs Artists:  A B C D E F G H I J K L M N O P Q R S T U V W X Y Z 0-9

Heartbreaker Guitar Tabs – Pat Benatar

CD, Sheet music, Poster

Do you like Heartbreaker? Share with your friends now
Bass TabsChordsTabsTabs v2Ukulele

 b=bend up
 r=release bend
 ~=vibrato
 /=slide up
 \=slide down
 *=trill
 tr=temelo pick
 p.m.------|=palm mute
 x=muffled string or note
 h=hammer on
 p=pull off



 INTRO distortion

-|---|----------------------------|-----|-----------------------|-------------
-|---|----------------------------|-----|-----------------------|-------------
-|---|----------------------------|-----|-----------------------|-------------
-|6--|---------------------------6|-x-2-|-----------------------|-------------
-|6--|-3-3-3-3-3-3-3-3-3-3-3-3-3-6|-----|3-3-3-3-3-3-3-3-3-3-3-3|-------------
-|4--|-1-1-1-1-1-1-1-1-1-1-1-1-1-4|-----|1-1-1-1-1-1-1-1-1-1-1-1|-------------
       p.m---------------------|         p.m.------------------|                


 Verse 

                                                                                      
 "Your love..."
-|------------------------------------------------------------|---------------
-|------------------------------------------------------------|---------------
-|--------------------------------------------------------5--8|---------------
-|----------------8-8-8-8-8-8-8-8-6-6-6-6-6-6-6-6-3-3-3-3-5--8|-x-2-----------
-|3-3-3-3-3-3-3-3-6-6-6-6-6-6-6-6-4-4-4-4-4-4-4-4-1-1-1-1-3--6|---------------
-|1-1-1-1-1-1-1-1---------------------------------------------|---------------
  p.m.--------------------------------------------------|                       


 Bridge


 "You're the right..."                                                     

-|--------------------------------|-------------------------------------------
-|--------------------------------|-------------------------------------------
-|10--8--6----3-------------------|-------------------------------------------
-|10--8--6----3----5-5-5-5-5-5-5-5|-------------------------------------------
-|8---6--4----1----3-3-3-3-3-3-3-3|-------------------------------------------
-|--------------------------------|-------------------------------------------
                   p.m.----------|                                                           

-|------------------------------------------|---------------------------------
-|------------------------------------------|---------------------------------
-|10--8--6----3----------------------------5|---------------------------------
-|10--8--6----3----5-5-5-5-5-5-5-5-5-5-5-5-5|---------------------------------
-|8---6--4----1----3-3-3-3-3-3-3-3-3-3-3-3-3|---------------------------------
-|------------------------------------------|---------------------------------
                   p.m.------------------|                                     


 Chorus


 "You're a heartbreaker..."                      

-|------------------------------|---------------------------------------------
-|------------------------------|---------------------------------------------
-|---------------3-3---5---6---5|---------------------------------------------
-|3-3---5--6-6---3-3---5---6---5|-x-2-----------------------------------------
-|3-3---5--6-6---1-1---3---4---3|---------------------------------------------
-|1-1---3--4-4------------------|---------------------------------------------
                                                                              


 Play Intro Again


 Play Verse Again


 Play Bridge Again


 Play Chorus Again


 Interlude

-|------------------------------|---------------------------------------------
-|------------------------------|---------------------------------------------
-|8---10--------------------8--7|---------------------------------------------
-|8---10--10---8---6--5--3--8--7|---------------------------------------------
-|6---8---10---8---6--5--3--6--5|---------------------------------------------
-|--------8----6---4--3--1------|---------------------------------------------
 

-|--------------------------------------|-------------------------------------
-|--------------------------------------|-------------------------------------
-|8---10--------------------------------|-------------------------------------
-|8---10--10---8---6-5---------------5-3|-------------------------------------
-|6---8---10---8-------8-6-4-3---3-4----|-------------------------------------
-|--------8----6---------------6--------|-------------------------------------
 

-|--------------------------|-------------------------------------------------
-|--------------------------|-------------------------------------------------
-|----5~----5~-----5~-----5~|-------------------------------------------------
-|5-5----5-5----5-5----5-5--|-------------------------------------------------
-|3-3----3-3----3-3----3-3--|-------------------------------------------------
-|--------------------------|-------------------------------------------------
  p.m.   p.m.   p.m.   p.m.

-|--------------------------------|-------------------------------------------
-|--------------------------------|-------------------------------------------
-|--------------------------------|-------------------------------------------
-|5-5-5-5-5-5-5-5-5-5-5-5-5-5-5-5-|-------------------------------------------
-|3-3-3-3-3-3-3-3-3-3-3-3-3-3-3-3-|-------------------------------------------
-|--------------------------------|-------------------------------------------
  p.m.--------------------------|                                               


 "You're the right kind..."                             

-|------------------------------------|---------------------------------------
-|------------------------------------|---------------------------------------
-|10---5--6---------------------------|---------------------------------------
-|10---5--6----6--8-------------------|---------------------------------------
-|8----3--4----6--8----10-8--6----5--3|---------------------------------------
-|-------------4--6----8--6--4----3--1|---------------------------------------
                                                                              

-|--------------------------------------------------------------------|-------
-|--------------------------------------------------------------------|-------
-|10---5--6-----------------------------------------------------------|-------
-|10---5--6----6--8----10---------------------------------------------|-------
-|8----3--4----6--8----10-10-10-10-10-10-10-10-10-10-10-10-10-10-10-10|-------
-|-------------4--6----8--8--8--8--8--8--8--8--8--8--8--8--8--8--8--8-|-------
                       p.m.------------------------------                         


 Then it goes into modified Chorus and a bunch of "I'm a guitar player in a band
 named after the singer and no one will remember my guitar playing a decade from
 now so I will just show off my leadwork" wanking in key of F (I am a lead 
 player too but this outro solo was a waste of time)  





Comments


Popular Pat Benatar tabs & chords
Hit Me With Your Best Shot Bass Tabs
Love Is A Battlefield Chords
Promises In The Dark Chords
Shooting Star Chords
Somebodys Baby Chords
You Better Run Chords
Hit Me With Your Best Shot 6 Tabs
Invincible Tabs
Hell Is For Children Ukulele
Shooting Star Ukulele


Song lyrics



↑ Back to top | Tablatures and chords are parodies/interpretations of the original songs. You may use it for private study, scholarship, research or language learning purposes only
© 2014 AZChords.com Contact us | Privacy policy | DMCA | Add/correct tabs | Request tabs | Top 50 tabs