» » »

Hit Me With Your Best Shot Bass tabs (ver.1)

Artists:  A B C D E F G H I J K L M N O P Q R S T U V W X Y Z # 

Hit Me With Your Best Shot Bass tabs (ver.1)

Pat Benatar
Rating:
4/5 (8 votes)

Hard to play? Try these video lessons and learn fast.
                ----------------------------------------------------------------------------
     HIT ME WITH YOUR BEST SHOT - Pat Bennetar
----------------------------------------------------------------------------



Tuning:EADG

Intro
G|--------------------------|X2
D|--------------------------|
A|7----44-22~--7----44220022|
E|--55-----------55---------|

Verse
G|---------------------|X2
D|---------------------|
A|7~-6-4~-0-22-22222222|
E|---------------------|

Chorus
G|--------------------------|X2
D|--------------------------|
A|7----44-22~--7----44220022|
E|--55-----------55---------|

Verse X2
Chorus X2
Verse X2
Chorus X2

Bridge X2
G|---------------------------4----|
D|----------------2-2------2---2--|
A|-----------------4---2-4-------2|
E|12-1211-1110-24-----------------|

Post Bridge
G|-------------------------|
D|-------------------------|
A|7~---7~---7~-777777777777|
E|-------------------------|

Verse X2
G|--------------------------|X2
D|--------------------------|
A|7----44-22~--7----44220022|
E|--55-----------55---------|

Outro Verse (Hold the 7 for longer at the start and the 2 for longer at the end)         
 X3 End with
G|---------------|-------------------|
D|---------------|-------------------|
A|7----44-22-00-2|7----44-22-00-2-27~|
E|--55-----------|--55---------------|

Have Fun!!
            
Hard to play? Try these video lessons and learn fast. | Correct




comments powered by Disqus
↑ Back to top | Tablatures and chords are parodies/interpretations of the original songs. You may use it for private study, scholarship, research or language learning purposes only