>
 >
So Sick 4

So Sick 4 Guitar Tabs

Passion - So Sick 4 chords, tabs, tablatures, lyrics

Guitar lessons | Add/correct | Request | Top 50 tabs Artists:  A B C D E F G H I J K L M N O P Q R S T U V W X Y Z 0-9

So Sick 4 Guitar Tabs – Passion

CD, Sheet music, Poster

Do you like So Sick 4? Share with your friends now
TabsTabs v2Tabs v3Tabs v4
i think that this sounds more correct than other versions

got help from 
^^^^^^^^^^^^^^^^^^^^^^^^^^^^^^^^^^^^^^^^^^
            this guy



CAPO 4







       INTRO
------------------2------------------------|
-------2--------3--3------3------2----2----|
--------2-----2------------0----0----0-----|(2x)
-----4---4------------0-----0--2----2------|
-1/2-------5----------0h2-----0----1-------|
-------------3-----------------------------|
       INTRO CONT.                           
------------------2------------------------|
-------2--------3--3------3------2----2----|
--------2-----2------------0----0----0-----|
-----4---4------------0-----0--2----2------|
-1/2-------5----------0h2-----0----1-------|
-------------3-----------------------------|
        ^          ^       ^                
       tap         tap    tap
         INTRO END
---------------------------------------------------|
---2h3-2h3-2h3-2h3-2h3-----2h3-2h3-2h3~------------|
------2---2---2---2---2-------2---2----------------|
---------------------------------------------------|
---------------------------------------------------|
--3------------------------3-----------------------|

         VERSE       
------------------2------------------------|
-------2--------3--3------3------2----2----|
--------2-----2------------0----0----0-----|
-----4---4------------0-----0--2----2------|(3X)
-1/2-------5----------0h2-----0----1-------|
-------------3-----------------------------|
        ^          ^       ^                
       tap         tap    tap
         BRIDGE  
---------------------------------------------------|
---2h3-2h3-2h3-2h3-2h3-----2h3-2h3-2h3~------------|
------2---2---2---2---2-------2---2----------------|
---------------------------------------------------|
---------------------------------------------------|
--3------------------------3-----------------------|

VERSE
BRIDGE


       CHORUS
--------2----3------------------------|   
----2---3----3--------2----2----------|   
----2---2----0-------0----0-----------|(2X) 
----4---0----0------2----2------------|  
----2--------2-----0----1-------------|   
--------3-----------------------------|   

--------2----3------------------------|   
----2---3----3--------2---------------|   
----2---2----0-------0-0--------------| 
----4---0----0------2---2-------------|  
----2--------2-----0------------------|   
--------3-----------------------------| 

---------------------------------------------------|
---2h3-2h3-2h3-2h3-2h3-----2h3-2h3-2h3~------------|
------2---2---2---2---2-------2---2----------------|
---------------------------------------------------|
---------------------------------------------------|
--3------------------------3-----------------------|

VERSE
BRIDGE
CHORUS

        BREAKDOWN


--0----2-----0----2-----0----2-----0----2----------|
--2----2-----2----2-----2----2-----2----2----------|
--0----2-----0----2-----0----2-----0----2----------|
--2----4-----2----4-----2----4-----2----4----------|
--0----2-----0----2-----0----2-----0----2----------|
---------------------------------------------------|

CHORUS (2X)
END BRIDGE
-----------------------------------------------------------------|
---2h3-2h3-2h3-2h3-2h3-----2h3-2h3-2h3-2h3-2h3-2h3-2h3-2h3-2h3---|
------2---2---2---2---2-------2---2---2---2---2---2---2---2------|(fades out)
-----------------------------------------------------------------|
-----------------------------------------------------------------|
--3------------------------3-------------------------------------|


INTRO

Verse
Gotta change my answering machine
Now that I'm alone
Cuz right now it says that we
Can't come to the phone
And I know it makes no sense
Cuz you walked out the door

BRIDGE
But it's the only way I hear your voice anymore

VERSE
it's ridiculous
It's been months
And for some reason I just
can't get over us
And I'm stronger than this
enough is enough
No more walkin round
With my head down

BRIDGE
I'm so over being blue
Cryin over you

CHORUS
And I'm so sick of love songs
So tired of tears
So done with wishing you were still here
Said I'm so sick of love songs so sad and slow
So why can't I turn off the radio?

VERSE 
Gotta fix that calender I have
That's marked July 15th
Because since there's no more you
There's no more anniversary
I'm so fed up with my thoughts of you
And your memory

BRIDGE
And how every song reminds me
Of how we used to be

CHORUS
That's the reason I'm so sick of love songs
So tired of tears
So done with wishing you were still here
Said I'm so sick of love songs so sad and slow
So why can't I turn off the radio?

BREAKDOWN
Leave me alone
Stupid love songs
Don't make me think about her smile
Or having my first child
I'm letting go
Turning off the radio

CHORUS
Cuz I'm so sick of love songs
So tired of tears
So done with wishing she was still here
Said I'm so sick of love songs so sad and slow
So why can't I turn off the radio?

CHORUS
Thats the reason I'm so sick of love songs
I'm so tired of tears
So done with wishin' you were still here
Said I'm so sick of love songs so sad and slow
Why can't I turn off the radio?

END BRIDGE
(why can't I turn off the radio?)
Why can't I turn off the radio?





Comments


Popular Passion tabs & chords
Lemonade Bass Tabs
As Long As You Wait For Me 1 Chords
I Could Sing Of Your Lovefforever Chords
Cater 2 U Tabs
Cater 2 U 2 Tabs
Knees To The Earth Tabs
My Love Tabs
My Love 1 Tabs
Refiners Fire Tabs
Burning In My Soul Ukulele


Song lyrics



↑ Back to top | Tablatures and chords are parodies/interpretations of the original songs. You may use it for private study, scholarship, research or language learning purposes only
© 2014 AZChords.com Contact us | Privacy policy | DMCA | Add/correct tabs | Request tabs | Top 50 tabs