» » »

Passion, So Sick Tabs (ver.5)

Artists:  A B C D E F G H I J K L M N O P Q R S T U V W X Y Z # 

So Sick Tabs (ver.5)

Passion Tabs
 Rating:
4/5 (4 votes)
So Sick lessons Tabs too difficult? Try these video lessons and learn fast
                This is my very first tab, and if I messed up on some parts
sorry because I'm only 11.


Capo on first fret

Intro:

e-----------------------------------------------2-------------------|
g--------------2-----------------------------3-------3--------------|
b--------------2-----2-------------------2--------------------------|
d-----------------------------3-------------------------------------|
a------1/2----------------------------------------------------------|
e-----------------------------------3-------------------------------|
                                    ^ Use your thumb for that.

e--------------------------------------------------------------------|
g--------------------3------------------2-------------2--------------|
b----------------0------------------0--------------0-----------------|
d-----------0--------------------2-------------2---------------------|
a-----0h2--------------------0--------------1------------------------|
e--------------------------------------------------------------------|


e-----------------------------------------------2-------------------|
g--------------2-----------------------------3-------3--------------|
b--------------2-----2-------------------2--------------------------|
d-----------------------------3-------------------------------------|
a------1/2----------------------------------------------------------|
e-----------------------------------3-------------------------------|
                                    ^thumb


e--------------------------------------------------------------------|
g--------------------3------------------2-------------2--------------|
b----------------0------------------0--------------0-----------------|
d-----------0--------------------2-------------2---------------------|
a-----0h2--------------------0--------------1------------------------|
e--------------------------------------------------------------------|


Keep repeating until you think it sounds good.
e--------------------------------------------------------------------|
g-------2h3---------2h3------------2h3------------2h3----------------|
b-------------2--------------2---------------2-----------------------|
d--------------------------------------------------------------------|
a--------------------------------------------------------------------|
e--------3-----------3--------------3---------------3----------------|
         ^thumb      ^thumb         ^thumb          ^thumb

Chorus
Repeat 1 time.
e--------------2---2--------------------------------------------|
g-----2---2----3---3---3---3-----2------------------------------|
b-----2---2----2---2--------------------------------------------|
d--------------------------------2------------------------------|
a-----2---2------------2---2------------------------------------|
e--------------3---3--------------------------------------------|
               ^thu^mb


Then:

Keep repeating until you think it sounds good.
e--------------------------------------------------------------------|
g-------2h3---------2h3------------2h3------------2h3----------------|
b-------------2--------------2---------------2-----------------------|
d--------------------------------------------------------------------|
a--------------------------------------------------------------------|
e--------3-----------3--------------3---------------3----------------|
         ^thumb      ^thumb         ^thumb          ^thumb


There you go. =DD

Again,
This is my very first tab, and if I messed up on some parts
sorry because I'm only 11.
            
Submit corrections

comments powered by Disqus
↑ Back to top | Passion Tabs for So Sick. Lyrics for acoustic guitar and electric guitar. Tablatures and chords are parodies/interpretations of the original songs. You may use it for private study, scholarship, research or language learning purposes only