>
 >
So Sick 1

So Sick 1 Guitar Tabs

Passion - So Sick 1 chords, tabs, tablatures, lyrics

Guitar lessons | Add/correct | Request | Top 50 tabs Artists:  A B C D E F G H I J K L M N O P Q R S T U V W X Y Z 0-9

So Sick 1 Guitar Tabs – Passion

CD, Sheet music, Poster

Do you like So Sick 1? Share with your friends now
TabsTabs v2Tabs v3Tabs v4
Capo: 4th fret
Tuning: Standard
\ - slide down
^ - hit guitar strings with right hand

Tip(optional)
When plucking: 
	|--------2-|
	|------3---|
	|----2-----|
	|----------|
	|----------|
	|--3-------|
form a "D" chord and use thumb for top bass string by curling thumb around back of
guitar neck. This chord formation is also seen in the chorus and bridge as well.  


Intro:

|--------------------2-------------------------------------------|
|--------2---------3---3------------3-----------0-------2--------|
|------2---2-----2-------2--------0---0-------0-------0----------|
|----4-------4------------------0-------0---0-------0------------|
|--2-----------------------0h2------------0-------1--------------|
|--------------3-----------0-------------------------------------|


|--------------------2-------------------------------------------|
|--------2---------3---3------------3-----------0-------2--------|
|------2---2-----2-------2--------0---0-------0-------0----------|
|----4-------4------------------0-------0---0-------0------------|
|--2-----------------------0h2------------0-------1--------------|
|--------------3-----------0-------------------------------------|

          
|----------------------2-----------------------------------------|
|--------2-----------3-----3------------3--------------0---------|
|------2-----2-----2---------2--------0------0-------0---0-------|
|----4---------4--------------------0----------0---0------0------|
|--2---------------------------0h2---------------0---------------|
|----------------3-------------0---------------------------------|
           ^             ^                ^

|----------------------------------------------------------------|
|--2h3----2h3---2h3---2h3---2h3----2h3---2h3---2h3p2-------------|
|-------2-----2-----2-----2------2-----2-----2-------------------|
|----------------------------------------------------------------|
|----------------------------------------------------------------|
|--3------------------------3------------------------------------|
                                                     

Verse:
|------------------------------2-----------------------------------------|
|----------------2-----------3-----3------------3--------------0-------2-|
|--------------2-----2-----2---------2--------0------0-------0-------0---|
|------------4---------4--------------------0----------0---0-------0-----|
|----------2---------------------------0h2---------------0-------1-------|
|------------------------3-------------0---------------------------------|
         ^         ^             ^                ^
 Gotta change my answering machine . . . .


|--------------------2---------------------------------------------------|
|--------2---------3---3------------3-----------0-------2----------------|
|------2---2-----2-------2--------0---0-------0-------0------------------|
|----4-------4------------------0-------0---0-------0--------------------|
|--2-----------------------0h2------------0-------1----------------------|
|--------------3-----------0---------------------------------------------|



|------------------------------2-----------------------------------------|
|----------------2-----------3-----3------------3--------------0---------|
|--------------2-----2-----2---------2--------0------0-------0---0-------|
|------------4---------4--------------------0----------0---0------0------|
|----------2---------------------------0h2---------------0---------------|
|------------------------3-------------0---------------------------------|
                   ^             ^                ^


|------------------------------------------------------------------------|
|--2h3----2h3---2h3---2h3---2h3----2h3---2h3---2h3p2---------------------|
|-------2-----2-----2-----2------2-----2-----2---------------------------|
|------------------------------------------------------------------------|
|------------------------------------------------------------------------|
|--0------------------------0--------------------------------------------|
                                                          ^

Pre-chorus:
|------------------------------2-----------------------------------------|
|----------------2-----------3-----3------------3--------------0-------2-|
|--------------2-----2-----2---------2--------0------0-------0-------0---|
|------------4---------4--------------------0----------0---0-------0-----|
|----------2---------------------------0h2---------------0-------1-------|
|------------------------3-------------0---------------------------------|
                   ^             ^                ^


|----------------------2-------------------------------------------------|
|--------2-----------3---3------------3-----------0-------2--------------|
|------2-----2-----2-------2--------0---0-------0-------0----------------|
|----4---------4------------------0-------0---0-------0------------------|
|--2-------------------------0h2------------0-------1--------------------|
|----------------3-----------0-------------------------------------------|
                    ^


|----------------------2-------------------------------------------------|
|--------2-----------3---3------------3-----------0----------------------|
|------2-----2-----2-------2--------0---0-------0---0--------------------|
|----4---------4------------------0-------0---0-------0------------------|
|--2-------------------------0h2------------0----------------------------|
|----------------3-----------0-------------------------------------------|
                    ^


|------------------------------------------------------------------------|
|--2h3----2h3---2h3---2h3---2h3----2h3---2h3---2h3p2---------------------|
|-------2-----2-----2-----2------2-----2-----2---------------------------|
|------------------------------------------------------------------------|
|------------------------------------------------------------------------|
|--0------------------------0--------------------------------------------|


Chorus:
|--------2-----2-----2-----2--------------------------------------|
|--------2-----2-----3-----3--------------3-------------0-------2-|
|--------2-----2-----2-----2-----0------0-----0-------0-------0---|
|--------4-----4-----0-----0-----0----0---------0---0-------0-----|
|--------2-----2---2-0-----0-----0h2--------------0-------1-------|
|--------2-----2-----3-----3-----0--------------------------------|
  ^              ^           ^              ^
 And I'm so sick of . . . 


|--------2-----2-----2-----2--------------------------------------|
|--------2-----2-----3-----3--------------3-------------0-------2-|
|--------2-----2-----2-----2-----0------0-----0-------0-------0---|
|--------4-----4-----0-----0-----0----0---------0---0-------0-----|
|--------2-----2---2-0-----0-----0h2--------------0-------1-------|
|--------2-----2-----3-----3-----0--------------------------------|
                 ^           ^              ^


|--------2-----2-----2-----2--------------------------------------|
|--------2-----2-----3-----3--------------3-------------0---------|
|--------2-----2-----2-----2-----0------0-----0-------0---0-------|
|--------4-----4-----0-----0-----0----0---------0---0-------0-----|
|--------2-----2---2-0-----0-----0h2--------------0---------------|
|--------2-----2-----3-----3-----0--------------------------------|
                 ^           ^              ^

|------------------------------------------------------------------------|
|--2h3----2h3---2h3---2h3---2h3----2h3---2h3---2h3p2---------------------|
|-------2-----2-----2-----2------2-----2-----2---------------------------|
|------------------------------------------------------------------------|
|------------------------------------------------------------------------|
|--0------------------------0--------------------------------------------|
                                             

Repeat Verse
Repeat Chorus

Bridge:
|---------------0-----2-----------|
|--2---2----2-----3---3---3-3-----|
|--2---2----2-----2---2---2-2-----|
|--2---2----2-----0-------0-0---0-|
|--0--------0---------------------|
|-----------------3-------3-------|
         ^              ^     ^  

|---------------0-----2-----------|
|--2---2----2-----3---3---3-3-----|
|--2---2----2-----2---2---2-2-----|
|--2---2----2-----0-------0-0---0-|
|--0--------0---------------------|
|-----------------3-------3-------|
         ^              ^     ^  

|---------------0-----2-----------|
|--2---2----2-----3---3---3-3-----|
|--2---2----2-----2---2---2-2-----|
|--2---2----2-----0-------0-0---0-|
|--0--------0---------------------|
|-----------------3-------3-------|
         ^              ^     ^  

|-------------------2--2-----2--2------|
|--2---2----2---2---2--2-----2--2------|
|--2---2----2---2---2--2-----2--2------|
|--2---2----2---2---4--4-----4--4------|
|--0--------0-------2--2-----2--2------|
|-------------------2--2-----2--2\13---|
         ^        ^       ^           ^

Repeat 





Comments


Popular Passion tabs & chords
Cater 2 U 1 Tabs
Lemonade 2 Tabs
My Boo Tabs
My Love Tabs
My Love 2 Tabs
Oh Vienna Tabs
So Sick Acoustic Intro Tabs
Whisper Tabs
Burning In My Soul Ukulele
Sing To The King Ukulele


Song lyrics



↑ Back to top | Tablatures and chords are parodies/interpretations of the original songs. You may use it for private study, scholarship, research or language learning purposes only
© 2014 AZChords.com Contact us | Privacy policy | DMCA | Add/correct tabs | Request tabs | Top 50 tabs