» » »

Passion, Lemonade Bass tabs (ver.1)

Artists:  A B C D E F G H I J K L M N O P Q R S T U V W X Y Z # 

Lemonade Bass tabs (ver.1)

Passion Tabs
Rating:
0/5 (0 votes)
Lemonade lessons Tabs too difficult? Try these video lessons and learn fast
                Hey People! My 1st Eva Tabs! Hope You Like It..

I noticed that Passion's Song Lemonade doesnt have a noticable bassline..
so if u wana funk it up and make it more alive.. this is the bass tabs!
i made it up! sooo.. if u dont agree wid them.. Show Me Something beta..

                               Lemonade
                               Passion
Words And Music By: Passion

Intro:

G----9----7---7---------------9-----7-|
D-------------------5h7-7/9-7---------|
A--7--7-5---5---5-5-------------7-5---|
E-------------------------------------|

G----7-----------9-----7---7-----------9-----|
D--------------------------------------------|
A--5---5-5-5-6-7---7-5---5---5-5-5-6-7---7-5-|
E--------------------------------------------|

G-------------------|
D--7-5-----------5--|
A------7-5----------|
E----------7-5-3----|

Verse 1:

G----9-----7---7-----------|
D--------------------------|   Repeat Until End of
A--7---7-5---5---5-5-5-6-7-|      Verse One
E--------------------------|

Chorus 1:

G----9-----7---7-----------|
D--------------------------|   Repeat Until End of
A--7---7-5---5---5-5-5-6-7-|      Chorus One
E--------------------------|

Verse 2:

G----9-----7---7-----------|
D--------------------------|   Repeat Until End of
A--7---7-5---5---5-5-5-6-7-|      Verse Two
E--------------------------|

Chorus 2:

G----9-----7---7-----------|
D--------------------------|   Repeat Until End of
A--7---7-5---5---5-5-5-6-7-|      Chorus Two
E--------------------------|

Chorus 3:

G----9-----7---7-----------|
D--------------------------|   Repeat Until End of
A--7---7-5---5---5-5-5-6-7-|      Chorus Three
E--------------------------|

Chorus 4:

REST

Outro:

G----------------|
D--7-5-----------|
A------7-5-------|
E----------7-5-3-|

I Liked to end the song like that.. But play it slowly.. the same time as how slow the 
go.. start wen he speaks.. and end wen he ends.. It May Take Good Timing.. But if you 
it good.. it will sound perfect.. But IF you dont like the Outro.. Make up your oWn.. Peace!
            
Submit corrections

comments powered by Disqus
↑ Back to top | Passion Bass for Lemonade. Lyrics for acoustic guitar and electric guitar. Tablatures and chords are parodies/interpretations of the original songs. You may use it for private study, scholarship, research or language learning purposes only