» » »

Passenger, Feather On The Clyde Tabs (ver.1)

Artists:  A B C D E F G H I J K L M N O P Q R S T U V W X Y Z # 

Feather On The Clyde Tabs (ver.1)

Passenger Tabs
 Rating:
4/5 (4 votes)
Feather On The Clyde lessons Tabs too difficult? Try these video lessons and learn fast
1
                Capo 8

CHORDS USED
      C     C2    Em    G     D
e|----0-----0-----0-----3-----0-----|
B|----1-----3-----0-----3-----3-----|
G|----0-----0-----0-----0-----2-----|
D|----2-----4-----2-----0-----0-----|
A|----3-----5-----2-----2-----0-----|
E|----0-----0-----0-----3-----0-----|


Intro

         C                                  C (Slide up two frets)   Em
e|---------------------------------------------------------------------------|
B|-------1------1------1------1-------1------1------3------3------0------0---|
G|---------0------0------0------0-------0------0------0------0------0------0-|
D|---------------------------------------------------------------------------|
A|-----3------3------3------3------3------3------5------5--------------------|
E|-------------------------------------------------------------0------0------|

e|-------------------------------------------------|
B|-------0------0------3------3-------3------3-----|
G|---------0------0------0------0-------0------0---|      X2
D|-------------------------------------------------|
A|-------------------------------------------------|
E|-----0------0------3------3------3------3--------|

Plucking pattern for the intro is continued throughout the whole song, but he adds
a few different variations in in different live performances i've seen.


VERSE
C                                  G
There is a river that runs through Glasgow,
       Em                                 C                G       C
And he makes her and he breaks her and he takes her into parts.
                  C2       Em             G
And a current just like my blood flows,
              C                   C2                   G
Down from the hills, round aching bones to my restless heart.

CHORUS
C                         G          D
Well I would swim but the river is so wide and i’m,
C              G              D
Scared I won’t make it to the other side and well,
C              G             D                    G
God knows I’ve failed but he knows that I’ve tried.
C                          G         D
I long for something that’s safe and warm,
C                  G           D
That all I have is all that is gone
C                        G             D                  G
I was as helpless and as hopeless as a Feather on the Clyde.

VERSE 2

And on one side all the lights glow,
And the folks know where the kids go when the music and the drinking starts.
And on the other side where no cars go,
Up to the hills, and round aching bones to my restless heart.

 CHORUS

Well I would swim but the river is so wide and i’m,
Scared I won’t make it to the other side and well,
God knows I’ve failed but he knows that I’ve tried.
I long for something that’s safe and warm,
But all I have is all that is gone
I was as helpless and as hopeless as a Feather on the Clyde, oh no.

VERSE 3

And the sun sets late in Glasgow,
The daylight and the city part.
And I think of you in Glasgow,
‘cause you’re all that’s safe, you’re all that’s warm, my restless heart.

Hope you enjoy learning this fantastic song!
            
Submit corrections

comments powered by Disqus
↑ Back to top | Passenger Tabs for Feather On The Clyde. Lyrics for acoustic guitar and electric guitar. 1 Tablatures and chords are parodies/interpretations of the original songs. You may use it for private study, scholarship, research or language learning purposes only