» » »

Passenger, The Girl Running Tabs (ver.1)

Artists:  A B C D E F G H I J K L M N O P Q R S T U V W X Y Z # 

The Girl Running Tabs (ver.1)

Passenger Tabs
 Rating:
4.4/5 (7 votes)
The Girl Running lessons Tabs too difficult? Try these video lessons and learn fast
1
                ----------------------------------------------------------------------------
          THE GIRL RUNNING (FEAT. JESS CHALKER) - Passenger
----------------------------------------------------------------------------

Tuning: Standard
Capo 3

This is how Mike plays it.

Intro
e|--------------3-------5------------------------------------|
B|----1------------1-------1------1------------1-------------|
G|----0---------------------------2------------2-------------|
D|-------2---------------------------2---2--------2---2------|
A|-3--------3---3--------------0-------0----0-------0--------|
E|----------------------3------------------------------------|

e|------------3p0-0--------------------3p0-0------|
B|-----1-------------1--------1-------------------|
G|-----2--2-------------------0-------------------|
D|--3-------3--------------------0----------------|
A|------------------------------------------------|
E|-----------------------3----------3-------------|

Chords Used:
    C   Am  G   F
e|--0---0---3---1---|
B|--1---1---1---1---|
G|--2---2---0---2---|
D|--0---2---0---3---|
A|--3---0---0---3---|
E|--0---0---3---1---|



Verse 1
C
Well I seen the girl running
        Am
with no shoes on her feet
        G
jumping shade to shadow
        F
in this deafening heat



Verse 2
C
And I hear the trains coming
        Am
And the drunk man singing on the street
       G
An the fan on the ceiling
        F
Reeling me into sleep



Intro



Verse 3
C
Well I dream silent movies
          Am
Black and white memories I suppose
               G
There the same old stories 
               F
But dressed in different clothes



Bridge
Am
La La La La La La
F
La La La La La La
G
La La La La La La
Am
La La La La La La
F
La La La La La La
G
La La La La La La
C
La La La La La La



Coda
C
So wheres the girl running
        Am  
With no shoes on her feet
              G
For theres no shade or shadow 
        F
In this deafening heat


************************************

| /   slide up
| \   slide down
| h   hammer-on
| p   pull-off
| ~   vibrato
| +   harmonic
| x   Mute note
| b   Bend
| pb  Pre-bend
| br  Bend release
| pbr Pre-bend release
| brb Bend release bend

************************************
            
Submit corrections

comments powered by Disqus
↑ Back to top | Passenger Tabs for The Girl Running. Lyrics for acoustic guitar and electric guitar. 1 Tablatures and chords are parodies/interpretations of the original songs. You may use it for private study, scholarship, research or language learning purposes only