» » »

Passenger, Caravan Tabs (ver.1)

Artists:  A B C D E F G H I J K L M N O P Q R S T U V W X Y Z # 

Caravan Tabs (ver.1)

Passenger Tabs
Rating:
0/5 (0 votes)
Caravan lessons Tabs too difficult? Try these video lessons and learn fast
                Noticed there was only one version of this song on here, and that it was only chords, so 
I attempted to work out the stumming pattern.

Not totally perfect, but it is a simplified version of what Mike plays. If anyone can 

So, just play the chords Am, C, G, C, F, C, F   but with this strumming pattern.

Capo 5

E|---------------------------------|
A|------X------------------X-------|
D|------X--------X-----------------|
G|----------X---------X------------|
B|--X------------------------------|
e|---------------------------------|


Or if this is easier to follow ......



                Am                                   C
E|------------------------------------------------------------------------|
A|------1------------------1----------------------1-----------------1-----|
D|------2--------2--------------------------------0--------0--------------|
G|----------2---------2--------------------------------2-------2----------|
B|--0---------------------------------------3-----------------------------|
e|------------------------------------------------------------------------|

                G                                    C
E|------------------------------------------------------------------------|
A|------0------------------0----------------------1-----------------1-----|
D|------0--------0--------------------------------0--------0--------------|
G|----------0---------0--------------------------------2-------2----------|
B|--2---------------------------------------3-----------------------------|
e|------------------------------------------------------------------------|

                F                                    C
E|------------------------------------------------------------------------|
A|------1------------------1----------------------1-----------------1-----|
D|------2--------2--------------------------------0--------0--------------|
G|----------3---------2--------------------------------2-------2----------|
B|--3---------------------------------------3-----------------------------|
e|------------------------------------------------------------------------|


            F                                    F
E|------------------------------------------------------------------------|
A|------1------------------1----------------------1-----------------1-----|
D|------2--------2--------------------------------2--------2--------------|
G|----------3---------2--------------------------------3-------2----------|
B|--3---------------------------------------3-----------------------------|
e|------------------------------------------------------------------------|



Chorus (G, C, G, F repeated x3)

            G                   C          G          F
E|------------------------------------------------------------------------|
A|-----0-------------0----------1----------0----------1--------------1----|
D|-----0------0-----------------0----------0----------2---------2---------|
G|--------0-------0------------------------------------------3-----2------|
B|--2------------------------3---------------------3----------------------|
e|--------------------------------------3---------------------------------|


Hope you found it helpful! x
            

comments powered by Disqus
↑ Back to top | Passenger Tabs for Caravan. Lyrics for acoustic guitar and electric guitar. Tablatures and chords are parodies/interpretations of the original songs. You may use it for private study, scholarship, research or language learning purposes only