» » »

Papa Cologne Tabs (ver.2)

Artists:  A B C D E F G H I J K L M N O P Q R S T U V W X Y Z # 

Papa Cologne Tabs (ver.2)

Parokya Ni Edgar
Rating:
0/5 (0 votes)

Hard to play? Try these video lessons and learn fast.
                Papa Cologne

Standard Tuning

Sa lahat ng may ayaw nitong tab na to, murahin niyo lang ako sa numerong 09223743402.


first Verse
"Kung ang iyong problema..."

	D-G-D-G

e|---------2-----2-----2-----2----------------------|
b|-------3---3-----3-----3--------------------------|
g|-----2-------2-----2-----2------------------------|
d|---0----------------------------------------------|
a|--------------------------------------------------|
e|--------------------------------------------------|

e|---------3-----3-----3-----3----------------------|    guitar 2 (kapag part ng G) Pakinggan nyo na lang ung kanta
b|-------3---3-----3-----3--------------------------|   e------------------------|
g|-----0-------0-----0-----0------------------------|   B----3p0-3-3h5-5/7-------|
d|--------------------------------------------------|
a|--------------------------------------------------|
e|---3----------------------------------------------|

first Refrain
"Ang sagot sa lahat ng..."

	Bm-A-G-A

e|---------7--|---------5--|---------5--|---------5--|
b|---------7--|---------5--|---------5--|---------5--|
g|---------7--|---------6--|---------4--|---------6--|
d|-------9----|-------7----|-------5----|-------7----|
a|-----9------|-----7------|-----5------|-----7------|
e|---7--------|---5--------|---3--------|---5--------|

first Chorus
"Nandito na ang Papa..."

	D-G-D-G

e|---------2-----2-----2-----2----------------------|
b|-------3---3-----3-----3--------------------------|
g|-----2-------2-----2-----2------------------------|
d|---0----------------------------------------------|
a|--------------------------------------------------|
e|--------------------------------------------------|

e|---------3-----3-----3-----3----------------------|
b|-------3---3-----3-----3--------------------------|
g|-----0-------0-----0-----0------------------------|
d|--------------------------------------------------|
a|--------------------------------------------------|
e|---3----------------------------------------------|

while guitar 2 do this (laru-laruin nyo lang kasi nagiiba ung sa 1st string lalo na ung chorus at the end of song)

e|-----10----9----7----5--------------|
b|---7-----7----7----7----------------|


Second verse 
"Mag-aamoy mayaman..."

	verse chords


Second refrain 
"Kung saan may tindahang..."

	refrain chords

	
Second chorus
"Gumamit na ng Papa..."

	chorus chords

Solo


e----------------------------------------------------------------|
b-----9/10-10-10-10/12-10-----------9/10-10-10-10/12-10----------|
g-------------------------7/9-9/11----------------------7/9-9\7--|
d----------------------------------------------------------------|
a----------------------------------------------------------------|
e----------------------------------------------------------------|


e--------------------------------------------------/15--14-------|
b-----9/10-10-10-10/12-10-----------------12/15-14---------15----|
g-------------------------7/9-9/11-/12-11----------------------13|
d----------------------------------------------------------------|
a----------------------------------------------------------------|
e----------------------------------------------------------------|


e-----------17-15-14-12---------------------------------------------------------|
b--------15-------------15-14-15-14-12-----------------10-8---------------------|
g-----16-------------------------------14-12-11-11/12--10----12-11------12-11---|
d------------------------------------------------------10----------9-12---------|
a-------------------------------------------------------------------------------|
e-------------------------------------------------------------------------------|


e-----------14------------12--------------------------------10---|
b-----12/15-----15---8/12-----12-10-8-7--------------------------|
g---------------------------------------9-7---7-7/9----9/11------|
d-------------------------------------------9--------------------|
a----------------------------------------------------------------|
e----------------------------------------------------------------|

"My Name is Peter North..."
e------10\5--5h7-5----------/15-14-12----------------------------|
b-------------------------------------15---14--------------------|
g---------------------------------------------14-12-11-----------|
d------------------------------------------------------14-12-12--|
a----------------------------------------------------------------|
e----------------------------------------------------------------|


repeat first verse

repeat first refrain

repeat second chorus


-end of song-


.i.am.the.unforgiven.
            
Hard to play? Try these video lessons and learn fast. | Correct




comments powered by Disqus
↑ Back to top | Tablatures and chords are parodies/interpretations of the original songs. You may use it for private study, scholarship, research or language learning purposes only