>
 >
Papa Cologne

Papa Cologne Guitar Tabs

Parokya Ni Edgar - Papa Cologne chords, tabs, tablatures, lyrics

Guitar lessons | Add/correct | Request | Top 50 tabs Artists:  A B C D E F G H I J K L M N O P Q R S T U V W X Y Z 0-9

Papa Cologne Guitar Tabs – Parokya Ni Edgar

CD, Sheet music, Poster

Do you like Papa Cologne? Share with your friends now
Bass TabsChordsTabsTabs v2Tabs v3Ukulele
(Verse/Chorus:)
Eto dalawang beses...
Pakinggan niyo na lang ung kanta para sa timing...
Letter D at G ang gamit dito...
e|---------2-----2-----2-----2----------------------|
B|-------3---3-----3-----3--------------------------|
G|-----2-------2-----2-----2------------------------|
D|---0----------------------------------------------|
A|--------------------------------------------------|
E|--------------------------------------------------|

e|---------3-----3-----3-----3----------------------|
B|-------3---3-----3-----3--------------------------|
G|-----0-------0-----0-----0------------------------|
D|--------------------------------------------------|
A|--------------------------------------------------|
E|---3----------------------------------------------|

(Refrain:)
Eto dalawang beses din...
Letter D, A, Bm, A eto...
e|---------2-------------------------|
B|-------3---------------------------|
G|-----2-----------------------------|
D|---0-------------------------------|
A|-----------------------------------|
E|-----------------------------------|

e|---------0-------------------------|
B|-------2---------------------------|
G|-----2-----------------------------|
D|---2-------------------------------|
A|-----------------------------------|
E|-----------------------------------|

e|---------2-------------------------|
B|-------3---------------------------|
G|-----4-----------------------------|
D|---4-------------------------------|
A|-----------------------------------|
E|-----------------------------------|

e|---------0-------------------------|
B|-------2---------------------------|
G|-----2-----------------------------|  Ung pangalawa istrum
D|---2-------------------------------|  niyo ng isa pababa..
A|-----------------------------------|
E|-----------------------------------|

(Chorus:)
Katulad lang ng Verse ito..
Pwede niyo rin ito istrum..
e|---------2-----2-----2-----2----------------------|
B|-------3---3-----3-----3--------------------------|
G|-----2-------2-----2-----2------------------------|
D|---0----------------------------------------------|
A|--------------------------------------------------|
E|--------------------------------------------------|

e|---------3-----3-----3-----3----------------------|
B|-------3---3-----3-----3--------------------------|
G|-----0-------0-----0-----0------------------------|
D|--------------------------------------------------|
A|--------------------------------------------------|
E|---3----------------------------------------------|

(Verse:)
(Refrain:)
(Chorus:)
Solo:
e|--------------------------------------------|
B|---10-10-12-10-------10-10-12-10------------|
G|---------------9-11--------------9-7--------|
D|--------------------------------------------|
A|--------------------------------------------|
E|--------------------------------------------|

e|-----------------------------------14s15-14-----------------------|
B|---10-10-12-10------------12s15-14----------15--------------------|
G|---------------9-11-12-11----------------------14s12--------------|
D|-----------------------------------------------------12-----------|
A|------------------------------------------------------------------|
E|------------------------------------------------------------------|

e|---------17-15----------------------------------------|
B|------15-------15-17-15-14-15-14-12-10-8-7-8----------|
G|---14-------------------------------------------------|
D|------------------------------------------------------|
A|------------------------------------------------------|
E|------------------------------------------------------|

e|--------------------------7-7s14-----7s12-12s7-------------|
B|--7h8-8s12-10-8-7-----8-7----------7-----------------------|
G|--------------------7------------9-------------------------|
D|------------------9----------------------------------------|
A|-----------------------------------------------------------|
E|-----------------------------------------------------------|

e|---------------------------10-----10-----------------------|
B|---10-8-7-5-3------------------------10-10h12-10-----------|
G|--------------2s4-4s7-7s11---------------------------------|
D|-----------------------------------------------------------|
A|-----------------------------------------------------------|
E|-----------------------------------------------------------|

e|---14s10-12s10--9---------------------------|
B|------------------8-------------------------|
G|--------------------11-9-7------------------|
D|---------------------------7s5--------------|
A|--------------------------------------------|
E|--------------------------------------------|

(Verse:)
(Refrain:)
(Chorus:) - Dalawang beses to....

Instruction:
-Sundin niyo na lang yan at pakinggan niyo ung kanta para sa timing ng pagpluck..Sige,Enjoy!..
-Kung my comments,eto Email ko..
-Sorry kung magulo ung tab ko..





Comments


Popular Parokya Ni Edgar tabs & chords
Boys Do Fall In Love Chords
Buloy Chords
How To Make A Love Song Chords
Pangarap Lang Kita 2 Chords
Ted Hannah Chords
Halaga Tabs
Halaga Intro Tabs
Nakakainis 1 Tabs
Boys Do Fall In Love Ukulele
Iisang Sarap Ukulele


Song lyrics



↑ Back to top | Tablatures and chords are parodies/interpretations of the original songs. You may use it for private study, scholarship, research or language learning purposes only
© 2014 AZChords.com Contact us | Privacy policy | DMCA | Add/correct tabs | Request tabs | Top 50 tabs