» » »

Parokya Ni Edgar, Amats Tabs (ver.1)

Artists:  A B C D E F G H I J K L M N O P Q R S T U V W X Y Z # 

Amats Tabs (ver.1)

Parokya Ni Edgar Tabs
Rating:
0/5 (0 votes)
Amats lessons Tabs too difficult? Try these video lessons and learn fast
                  AMATS by Parokya ni Edgar
  sinifra ni jeremy69k

  hi paki rate na lang 100% yan tama....
  para sa mga tambay ng Z-1 con. grande naga city

Intro:
e---------------------------------|
b---------------------------------|
g----2-4-5--------------2-4-22----|
d--5-------2-4-5-4-5-2-4-------5--|
a---------------------------------|
e---------------------------------|

              ---slide-------------|
e-------------7-9--9--7-9--9--7~---|
b-------------8-10-10-8-10-10-8~---|
g-2-4-5----------------------------|
d-------3-4------------------------|
a----------------------------------|
e----------------------------------|


verse:

G               Em
-3---------------0------|
-3---------------0------|
-0---------------0------|
-0---------------2------|
-2---------------2------|
-3---------------0------|
nung naginuman tayo
Am               D
-0---------------2--------|
-1---------------3--------|
-2---------------2--------|
-2---------------0--------|
-0---------------x--------|
-x---------------x--------|

masaya ka masaya din ako
Bm                      C
-2----------------------0--|
-3----------------------1--|
-4----------------------0--|
-4----------------------2--|
-2----------------------3--|
-x----------------------x--|
nung barkada ko at nang barkada mo

Am               D
-0---------------2--------|
-1---------------3--------|
-2---------------2--------|
-2---------------0--------|
-0---------------x--------|
-x---------------x--------|
lagi na lang tayong tinutukso

G               Em
-3---------------0------|
-3---------------0------|
-0---------------0------|
-0---------------2------|
-2---------------2------|
-3---------------0------|
ilang bote lang ang lumipas
Am               D
-0---------------2--------|
-1---------------3--------|
-2---------------2--------|
-2---------------0--------|
-0---------------x--------|
-x---------------x--------|
ang hirap mo nang makausap
Bm                      C
-2----------------------0--|
-3----------------------1--|
-4----------------------0--|
-4----------------------2--|
-2----------------------3--|
-x----------------------x--|
mapungay na ang iyong mga mata
Am               D
-0---------------2--------|
-1---------------3--------|
-2---------------2--------|
-2---------------0--------|
-0---------------x--------|
-x---------------x--------|
ang paligid ay maingay na

prechorus:
Em                      C
-0----------------------x----|
-0----------------------5----|
-0----------------------5----|
-2----------------------5----|
-2----------------------3----|
-0----------------------x----|
tatlong beses mong ikinuwento
Am                        G  D
--0-----------------------3--2-----|
--1-----------------------3--3-----|
--2-----------------------0--2-----|
--2-----------------------0--0-----|
--0-----------------------2--x-----|
--x-----------------------3--x-----|
nung madapa ka jan sa may kanto
  Em             G   C
--0--------------3---x---|
--0--------------3---5---|
--0--------------4---5---|
--2--------------5---5---|
--2--------------5---3---|
--0--------------3---x---|
limang ulit kang nalito
  F                  D
--1------------------2--|
--1------------------3--|
--2------------------2--|
--3------------------0--|
--3------------------x--|
--1------------------x--|
kung ano ang pangalan ko
         A  C#m    F#m    E
       --5---4-----2------0-------|
chorus:--5---5-----2------0-------|
chords:--6---6-----2------1-------|
       --7---6-----4------2-------|
       --7---4-----4------2-------|
       --5---x-----2------0-------|
Chorus:
  A                     C#m
pero biglang nawala ang amats ko
     F#m              E
nung madulas ang dila mo
  A                     C#m
hindi makapaniwala ang teynga ko
     F#m             E
nung biglang sabihin mo

 F#m   B      D   E
--2----2------2---0-----|
--2----2------3---0-----|
--2----4------2---1-----|
--4----4------0---2-----|
--4----2------x---2-----|
--2----x------x---0-----|
  F#m(hold)         B
masarap ka palang kausap
  F#m(hold)         B
buong maghapon o magdamag
  F#m(Hold)         B
alam mo ba ang sikreto ko
  D                E
matagal na kitang gusto

verse 2:do the same chords pattern

pagkatapos ng isang linggo
binantayan ko mga kilos mo
tinanong ko ang mga kabarkada mo
wala akong nakuha kahit ano

prechorus:do the same chords pattern

tatlong beses kong pinagisipan
baka nagpapakipot ka lang
limang ulit kong sinabi sa sarili
ganyan talaga ang babae

chorus 2:do the same chords pattern

kayat biglang nawala ang duda ko
nadulas lang ang dila mo
hindi makapaniwala ang teynga ko
noong sinabi mo

chorus part 2:do the same chords pattern

masarap ka palang kausap
buong maghapon o magdamag
alam mo ba ang sikreto ko
matagal na kitang gusto

verse 3:do the same chords pattern

di ko na mapigilan
kailangan kong malaman
tinulungan kitang aminin
ang matagal mo nang inililihim

prechorus 3:do the same chords pattern

tatlong beses mo akong minura
sa harap ng iyong barkada
limang beses na nabasag ang puso ko
nung sabihin mong ang kapal mo

chorus part 3:do the same chords pattern

kaya biglang nawala ang amats ko
nakagat ko ang dila ko
hindi makapaniwala ang teynga ko
sa mga sinabi mo

prechorus 3:do the same chords pattern

ang labo mo palang kausap
kapag may beer ka lang matapat
kahit maubos ang pera ko
maginuman na lang tayo

chorus part 4:do the same chords pattern

sana magubos na ang pulutan
at tapos na ang mga kwentuhan
pag simot na ang laman ng bote ko
sanay mahal mo ulit ako

repeat intro:
e---------------------------------|
b---------------------------------|
g----2-4-5--------------2-4-22----|
d--5-------2-4-5-4-5-2-4-------5--|
a---------------------------------|
e---------------------------------|

              ---slide-------------|
e-------------7-9--9--7-9--9--7~---|
b-------------8-10-10-8-10-10-8~---|
g-2-4-5----------------------------|
d-------3-4------------------------|
a----------------------------------|
e----------------------------------|

(wakas)

 pagal padi maggibu kaini.. rate nindu  ha dae paglingawan..thanks
 BAKA PA PRINT TULOS NINDU! MAYO PA ANG RATE..hehehehe
            
Submit corrections

comments powered by Disqus
↑ Back to top | Parokya Ni Edgar Tabs for Amats. Lyrics for acoustic guitar and electric guitar. Tablatures and chords are parodies/interpretations of the original songs. You may use it for private study, scholarship, research or language learning purposes only