>
 >
Amats 1

Amats 1 Guitar Tabs

Parokya Ni Edgar - Amats 1 chords, tabs, tablatures, lyrics

Guitar lessons | Add/correct | Request | Top 50 tabs Artists:  A B C D E F G H I J K L M N O P Q R S T U V W X Y Z 0-9

Amats 1 Guitar Tabs – Parokya Ni Edgar

CD, Sheet music, Poster

Do you like Amats 1? Share with your friends now
ChordsChords v2TabsTabs v2Ukulele
amats
parokya ni edgar

intro
e-----------------------------------------------------------------|
B-----------------------------------------------------------------|
G-----------------------------------------------------------------|
D-----------------4--5---4----------------------------------------|
A----0--2-3----5-------------5-----5----3----3---5B(7)------------|
E--3--------------------------------------------------------------|



e-----------------------------------------------------------------|
B--------------------------12-12--10-10--8-8--7-7-8---------------|
G-----------------------------------------------------------------|
D-----------------4--5------------------------------------------=-|
A----0--2-3----5------------------------------------------------=-|
E--3--------------------------------------------------------------|


verse pattern
     G        Em         Am          D, Dsus

e----3--------0----------0-----------2---3--2-0-2---------------------|
B----3--------0----------1-----------3--------------------------------|
G----0--------0----------2-----------2--------------------------------|
D----0--------2----------2-----------0--------------------------------|
A----2--------2----------0-----------x--------------------------------|
E----3--------0----------x-----------x--------------------------------|
    nag inuman tayo.............
    ilang bote lang ang lumipas.........

     Em          C          Am           D Dsus D

e----0-----------0----------0------------2--3--2--0--2----------------|
B----0-----------1----------1------------3----------------------------|
G----0-----------0----------2------------2----------------------------|
D----2-----------2----------2------------0----------------------------|
A----2-----------3----------0------------x----------------------------|
E----0-----------x----------x------------x----------------------------|
     ng barkada ko at barkada mo...........
     mapungaw na ang yong mga mata.............




REFRAIN

     Em        C          Am             G        D/F#

e----0---------0-----------0--------------3---3----2------------------|
B----0---------1-----------1--------------3---------------------------|
G----0---------0-----------2--------------0---------------------------|
D----2---------2-----------2--------------0---------------------------|
A----2---------3-----------0--------------2---------------------------|
E----0---------x-----------x--------------3---3----2------------------|
   tatlong beses..............


    Em        C          Am               D  -  E

e----0---------0-----------0--------------2-----0----------------------|
B----0---------1-----------1--------------3-----0----------------------|
G----0---------0-----------2--------------2-----1----------------------|
D----2---------2-----------2--------------0-----2----------------------|
A----2---------3-----------0--------------------2----------------------|
E----0---------x-----------x--------------------2----------------------|
    limang ulit kang nalito..........


CHORUS
    A         C#m           Bm         /E  /D  /C# /B

e---5----------4------------2----------------------------------------|
B---5----------5------------3----------------------------------------|
G---6----------6------------4----------9---7----6---4----------------|
D---7----------6------------4----------9---7----6---4----------------|
A---7----------4------------2----------7---5----4---2----------------|
E---5----------------------------------------------------------------|
  pero biglang nawala..........
  di makapaniwala 'ng tenga ko........


    F#m        Bm              D                        E

e--------------------|   |---------------------------------------------|
B--------------------|   |---------------------------------------------|
G-------------4------|   |-----7------------------------9--------------|
D---4---------4------| 3x|-----7------------------------9--------------|
A---4---------2------|   |-----5------------------------7--------------|
E---2----------------|   |---------------------------------------------|
   (break)  (let ring)
  masarap ka pala.....     matagal na kitang....gusto



(do verse chords/refrain and chorus)



outro


e-----------------------------------------------------------------|
B-----------------------------------------------------------------|
G-----------------------------------------------------------------|
D--------------------------6--7-----6-----------------------------|
A-----------4--5-------7--------------7-----7--5------5--7(9)-----|
E---5---7---------------------------------------------------------|





e-----------------------------------------------------------------|
B--------------------------------14-14-12-12-10-10-9-9-10---------|
G-----------------------------------------------------------------|
D--------------------------6-(7)----------------------------------|
A-----------4--5-------7------------------------------------------|
E---5---7---------------------------------------------------------|





Comments


Popular Parokya Ni Edgar tabs & chords
Maybe Someday Chords
Swimming Beach Lyrics Chords
Akala Tabs
Dont Touch My Birdie Intro Tabs
Gising Na Tabs
Gitara Intro 1 Tabs
Inuman Na Tabs
Kaleidoscope World 4 Tabs
Labsung Intro Tabs
Kaleidoscope Wolrd Ukulele


Song lyrics



↑ Back to top | Tablatures and chords are parodies/interpretations of the original songs. You may use it for private study, scholarship, research or language learning purposes only
© 2014 AZChords.com Contact us | Privacy policy | DMCA | Add/correct tabs | Request tabs | Top 50 tabs