>
 >
Boneyards 1

Boneyards 1 Guitar Tabs

Parkway Drive - Boneyards 1 chords, tabs, tablatures, lyrics

Guitar lessons | Add/correct | Request | Top 50 tabs Artists:  A B C D E F G H I J K L M N O P Q R S T U V W X Y Z 0-9

Boneyards 1 Guitar Tabs – Parkway Drive

CD, Sheet music, Poster

Do you like Boneyards 1? Share with your friends now
Bass TabsTabsTabs v2Tabs v3
Boneyards by Parkway Drive

Tuning Drop B - (B F# B E G# C#)

/ - SLIDE UP TO          h - HAMMER ON
\ - SLIDE DOWN TO        p - PULL OF
~ - VIBRATO              * - PALM MUTE
" - TREMOLO PICKING     [] - ARTIFICAL HARMONIC


  Intro x4
|-------------------------------------------------------------|
|-------------------------------------------------------------|
|----4"-2"-4"----4"-2"-2"----4h5p4-5h7p5-4h5p4--------4"------|
|--2-----------3-----------5--------------------3--5"----5"---|
|--2-----------3-----------5--------------------3-------------|
|--2-----------3-----------5--------------------3-------------|
   
  
|--------------------------------------------------------------------------------|
|--------------------------------------------------------------------------------|
|--------------------------------------------------------------------------------| 
|--------------------------------------------------------------------------------|
|--5--------7--------8--------10----8-----------5-------7-------8----10----8-----|
|----7-0000---9-0000---10-0000---12---10----0-0---7-0-0---9-0-0---10----12---10--| 
       ****     ****      ****              * *     * *     * *

|----------------------------|
|----------------------------|
|----------------------------| 
|--8-7"-5"-7"-8"-7"-10"-8"---|
|--8-------------------------|
|--8-------------------------| 

   Breakdown I
|--------------------------------------------------------------------------|
|--------------------------------------------------------------------------|
|--------------------------------------------------------------------------|
|--------------------------------------------------------5-------8p7p5p----|
|--0--0-0000-00--00-0-0-0--0000-00--0--0-0000-00-0h5h7h8---8p7p5--------8--|
|--0--0-0000-00--00-0-0-0--0000-00--0--0-0000-00---------------------------|
   *  * **** **  ** * * *  **** **  *  * **** **

|-----------| 
|-----------|
|-----------| THIS SECTION X2
|-5---------|
|---8p7p5---|
|-----------|

|--------------------------------------------------------------|
|--------------------------------------------------------------|
|--------------------------------------------------------------| x2
|-------------------------------------------------8"-7"-10"-7"-|
|--0--0-0000-00--00-0-0-0--0000-00--0--0-0000-00---------------|
|--0--0-0000-00--00-0-0-0--0000-00--0--0-0000-00---------------|
   *  * **** **  ** * * *  **** **  *  * **** **

|--------------------------------------------------|
|--------------------------------------------------|
|--------------------------------------------------| 
|--------------------------------------------------|
|--0--0-0000-00--00-0-0-0--0000-00--0--0-0000-00---|
|--0--0-0000-00--00-0-0-0--0000-00--0--0-0000-00---|
   *  * **** **  ** * * *  **** **  *  * **** **







|-----------------------------------| 
|-----------------------------------|
|-----------------------------------|
|-12---10----8----10----8----7------| 
|---14----12---10----12---10---9----|
 
  Verse I x2
|----------------------------------------------------------------------| 
|----------------------------------------------------------------------|
|----------------------------------------------------------------------|
|----------------------------------------------------------------------| 
|--8-----8-----7---8-----8-----7---8-----8-----7---10-----10-----8-----|
|----0-0---0-0---0---0-0---0-0---0---5-5---5-5---5----7-7----7-7---7---|
     * *   * *   *   * *   * *   *   * *   * *   *    * *    * *   *

|------------------------------------------------------------------------------| 
|------------------------------------------------------------------------------|
|------------------------------------------------------------------------------|
|------------------------------------------------------------------------------| 
|--8-----8-----7---8-----8-----7---5-----5-----3---7--------7-7h8p7--5--3------|
|----0-0---0-0---0---0-0---0-0---0---3-3---3-3---3---5-5-----------------------|
     * *   * *   *   * *   * *   *   * *   * *   *   * * 

  Verse II x4
|-------------------------------------------------------------------------| 
|-------------------------------------------------------------------------|
|-------------------------------------------------------------------------|
|--3-5-3-0---------5-7-5-0------------------------------------------------| 
|--3-5-3-0---------5-7-5-0---------5-------7-------8--------10----8-------|
|--3-5-3-0-0-0-0-0-5-7-5-0-0-0-0-0---7-0-0---9-0-0---10--0-0---12---10----|
           * * * *         * * * *     * *     * *       * * 
|---------------------------------------------------------------------------| 
|---------------------------------------------------------------------------|
|---------------------------------------------------------------------------|
|--3-5-3-0---------5-7-5-0--------------------------------------------------| 
|--3-5-3-0---------5-7-5-0-------------5-------7-------8--------10----8-----|
|--3-5-3-0-0-0-0-0-5-7-5-0-0-0-0-0-0-0---7-0-0---9-0-0---10--0-0--12---10---|
           * * * *         * * * * * *     * *     * *       * * 

  Verse III x2
|------------------------------------------------------------------------| 
|------------------------------------------------------------------------|
|------------------------------------------------------------------------|
|--3-5-3-0-----------------------------3-5-3-0---------------------------| 
|--3-5-3-0-----------------------------3-5-3-0---------3-5-3-0-5-7-5-0---|
|--3-5-3-0-0-0-0-0-0-0-0-0-0-0-0-0-0-0-3-5-3-0-0-0-0-0-3-5-3-0-5-7-5-0---|
           * * * * * * * * * * * * * *         * * * * * * * * * * * *

  Breakdown II
|--------------------------------------------------------------------------------------| 
|--------------------------------------------------------------------------------------|
|--------------------------------------------------------------------------------------|
|--------------------------------------------------------------------------------------| 
|-0-0-0-0---0--0-0-0--0-0-0-0--0-0-0-0---0--0-0-0--0-0-0-0---12------10------8---------|
|-1-1-1-1---0--0-0-0--0-0-0-0--1-1-1-1---0--0-0-0--0-0-0-0-0---14--0---12--0---10------|
  * * * *   *  * * *  * * * *  * * * *   *  * * *  * * * * *       *       *

|-----------------------------------------------------------------------| 
|-----------------------------------------------------------------------|
|-----------------------------------------------------------------------|
|-----------------------------------------------------------------------|
|-0-0-0-0--0--0-0---0-0-0-0--0--0-0--0-0-0-0---12------10------8--------|
|-1-1-1-1--1--1-1---1-1-1-1--1--1-1--1-1-1-1-0---14--0---12--0--10------|
  * * * *  *  * *   * * * *  *  * *  * * * * *       *       *







|----------------------------------------------------------------| 
|----------------------------------------------------------------|
|----------------------------------------------------------------|
|----------------------------------------------------------------| 
|-0-0-0-0--0--0-0---0-0-0-0--0000-0-0--0-0-0-0--0--0-0--0-0-0-0--|
|-0-0-0-0--0--0-0---0-0-0-0--0000-0-0--0-0-0-0--0--0-0--0-0-0-0--|
  * * * *  *  * *   * * * *  **** * *  * * * *  *  * *  * * * *

|---------------------------| 
|---------------------------|
|---------------------------|  
|---------------------------| 
|---12------10-------8------|
|-0---14--0---12--0----10---|  
  *       *       *



Repeat Verse I x4



|-------------------------------------------------| |-------|
|----------------------2x-------------------------| |-------|
|-------------------------------------------------| |-------|
|-------------------------------------0~~~~-------| |---0---|
|--12-----10-----8---10-----8-----7---0~~~~-------| |---0---|
|----14-0---12-0--10---12-0--10-0--9--0~~~~-------| |---0---|
                                                        *


 "There's Blood in the Water"

                                                                           
Breakdown III
|--------------------------------------------------------------------------|
|--------------------------------------------------------------------------|
|--------------------------------------------------------------------------|
|--------------------------------------------------------5-------8p7p5p----|
|--0--0-0000-00--00-0-0-0--0000-00--0--0-0000-00-0h5h7h8---8p7p5--------8--|
|--0--0-0000-00--00-0-0-0--0000-00--0--0-0000-00---------------------------|
   *  * **** **  ** * * *  **** **  *  * **** **

|-----------| 
|-----------|
|-----------|
|-5---------|
|---8p7p5---|
|-----------|

|---------------------------------------------------------------------------|
|---------------------------------------------------------2x----------------|
|---------------------------------------------------------------------------|
|----------------------------------------------------8"-7"-10"-7"-----0~~~~~|
|--0--0-0000-00--00-0-0-0--0000-00--0--0-0000-00----------------------0~~~~~|
|--0--0-0000-00--00-0-0-0--0000-00--0--0-0000-00----------------------0~~~~~|
   *  * **** **  ** * * *  **** **  *  * **** **





Comments


Popular Parkway Drive tabs & chords
Mutiny Bass Tabs
Alone Intro Tabs
Cruise Tabs
Dark Days 1 Tabs
Dead Dreams Tabs
Dead Man's Chest Tabs
Hollow Man Intro Tabs
Leviathan I Tabs
Picture Perfect Pathetic 1 Tabs
Samsara Tabs


Song lyrics



↑ Back to top | Tablatures and chords are parodies/interpretations of the original songs. You may use it for private study, scholarship, research or language learning purposes only
© 2014 AZChords.com Contact us | Privacy policy | DMCA | Add/correct tabs | Request tabs | Top 50 tabs