» » »

Boneyards Bass tabs (ver.1)

Artists:  A B C D E F G H I J K L M N O P Q R S T U V W X Y Z # 

Boneyards Bass tabs (ver.1)

Parkway Drive
Rating:
5/5 (3 votes)

Hard to play? Try these video lessons and learn fast.
                
hey, whass up. yeh, this is based off the guitar tab, n probly wrong, but i tried. yeh, 
a lot of listening to attempt this, so please at least credit me, if you intend to
borrow" it

Tuning: Drop B

INTRO
--------------------|
--------------------|
--------------------|
2*---3*---5*---3*---| x4

PRE-BREAKDOWN
"Go!!!"

--------------------|
--------------------|
5---7---8---10-8----|
-000-000-000--0-0---| x2

--------------------
8~~~~~~~~~~~~~~~~~~~
8~~~~~~~~~~~~~~~~~~~
8~~~~~~~~~~~~~~~~~~~

BREAKDOWN
-----------------------------------------------|
-----------------------------------------------|
-----------------------------------------------|
0--0-0000-00--00-0-0-0--0000-00--0--0-0000-00--| x4

(Guitar fill)

VERSE I
"Ohhh! To be buried, beneath the waves" (10's not 1's n 0's)
---------------------------------|
---------------------------------|
8--8--78--8--78--8--710--10--10--|
-00-00--00-00--55-55---77--77----| x4

PRE-VERSE "The serpents teeth await!!"
-------------------------------|
------------5--7--8-10-8-------|
-------------------------------|
3530~~~~--00-00-00-0--0--------|

VERSE II "Go!"
-----------------------------------------------|
-----------------------------------------------|
---------------------5p0--7p0--8p0--10p0-8p0---|
3530-0000-5750-0000-----00---00---00----0------|

-----------------------------------------------|
-----------------------------------------------|
----------------------5p0--7p0--8p0--10p0-8p0--|
3530-0000-5750-000000----00---00---00----0-----|

"The devils teeth"
-------------------------------------|
-------------------------------------|
-------------------------------------|
3530-000000000000-3530-000000000000--| x2

BREAKDOWN II
-----------------|
-----------------|
-----------------|
1-1-1*-----------|

--------------------------|
-------------------7-5-3--|
--------------------------|
1-1-1*------------0-0-0---|

---------------------------------------------------------|
--------------------------------------------------7-5-3--|
---------------------------------------------------------|
1-1-1---1--1-1---------1-1-1---1--1-1--1-1-1-1---0-0-0---|

-------------------------------------------------------------------|
------------------------------------------------------------7-5-3--|
-------------------------------------------------------------------|
-0-0-0---0--0-0---0-0-0-0--0000---0-0-0---0--0-0--0-0-0-0--0-0-0---|

Back to verse 1

------------------|
------------------|
8--8--710--10--10-|
-55-55---77--77---|

---------------------------------|
---------------------------------|
8--8--78--8--78--8--710--10--10--|
-00-00--00-00--55-55---77--77----| x3

Theres blood in the water!

------------------------------------|
-7-0-5-0-3-0-2-0-3-0---0~~~~~~~~~~~-|
---------------------3-0~~~~~~~~~~~-|
-----------------------0~~~~~~~~~~~-| x2

----
----
----
0*--

THERES BLOOD
IN
THE
WATER

Rpt breakdown 1

"I would rather see your face in hell!"
----------------------------|
----------------------------|
-----------10---------------|
8-7-10-7-8---10-0-----------|

*=stop string
p=pull-off
h=hammer-on
~=let ring
X=mute string

so yeh, there u go. hit us up, lyk it is me first tab ever, so any constructive
is appreciated, but dnt hit us up if ur jst guna bag me out or watever
            
Hard to play? Try these video lessons and learn fast. | Correct




comments powered by Disqus
↑ Back to top | Tablatures and chords are parodies/interpretations of the original songs. You may use it for private study, scholarship, research or language learning purposes only