>
 >
Boneyards

Boneyards Guitar Tabs

Parkway Drive - Boneyards chords, tabs, tablatures, lyrics

Guitar lessons | Add/correct | Request | Top 50 tabs Artists:  A B C D E F G H I J K L M N O P Q R S T U V W X Y Z 0-9

Boneyards Guitar Tabs – Parkway Drive

CD, Sheet music, Poster

Do you like Boneyards? Share with your friends now
Bass TabsTabsTabs v2Tabs v3
                                 BONEYARDS
                               Parkway Drive
                      (From The 2007 Album Horizons)



Gtr 1 - Tuning Drop B - (B F# B E G# C#)

/ - SLIDE UP TO          h - HAMMER ON
\ - SLIDE DOWN TO        p - PULL OF
~ - VIBRATO              * - PALM MUTE
" - TREMOLO PICKING     [] - ARTIFICAL HARMONIC

Gtr 2 is not tabbed becuase there both almost the same
so its not hard to figure out
rate and comment and tell me what you think


  Intro x4
|-------------------------------------------------------------|
|-------------------------------------------------------------|
|----4"-2"-4"----4"-2"-2"----4h5p4-5h7p5-4h5p4--------4"------|
|--2-----------3-----------5--------------------3--5"----5"---|
|--2-----------3-----------5--------------------3-------------|
|--2-----------3-----------5--------------------3-------------|
   
  
|-------------------------------------------------------------------------|
|-------------------------------------------------------------------------|
|-------------------------------------------------------------------------| 
|-------------------------------------------------------------------------|
|--5p0------7p0------8p0------10p0-8p0-----5p0-----7p0-----8p0-10p0-8p0---|
|------0000-----0000-----0000----------0-0-----0-0-----0-0----------------| 
       ****     ****     ****          * *     * *     * *

|----------------------------|
|----------------------------|
|----------------------------| 
|--8-7"-5"-7"-8"-7"-10"-8"---|
|--8-------------------------|
|--8-------------------------| 

   Breakdown I
|--------------------------------------------------------------------------|
|--------------------------------------------------------------------------|
|--------------------------------------------------------------------------|
|--------------------------------------------------------5-------8p7p5p----|
|--0--0-0000-00--00-0-0-0--0000-00--0--0-0000-00-0h5h7h8---8p7p5--------8--|
|--0--0-0000-00--00-0-0-0--0000-00--0--0-0000-00---------------------------|
   *  * **** **  ** * * *  **** **  *  * **** **

|-----------| 
|-----------|
|-----------| THIS SECTION X2
|-5---------|
|---8p7p5---|
|-----------|

|--------------------------------------------------------------|
|--------------------------------------------------------------|
|--------------------------------------------------------------| x2
|-------------------------------------------------------7"-----|
|--0--0-0000-00--00-0-0-0--0000-00--0--0-0000-00-10"-8"----8"--|
|--0--0-0000-00--00-0-0-0--0000-00--0--0-0000-00---------------|
   *  * **** **  ** * * *  **** **  *  * **** **

|--------------------------------------------------|
|--------------------------------------------------|
|--------------------------------------------------| 
|--------------------------------------------------|
|--0--0-0000-00--00-0-0-0--0000-00--0--0-0000-00---|
|--0--0-0000-00--00-0-0-0--0000-00--0--0-0000-00---|
   *  * **** **  ** * * *  **** **  *  * **** **

|-----------------------------------| 
|-----------------------------------|
|-----------------------------------|  
|-7p0-0-5p0-0-3p0-5p0-0-3p0-0-2p0---|
|-----------------------------------| 
|-----------------------------------|
 
  Verse I x2
|----------------------------------------------------------------------| 
|----------------------------------------------------------------------|
|----------------------------------------------------------------------|
|----------------------------------------------------------------------| 
|--8-----8-----7---8-----8-----7---8-----8-----7---10-----10-----8-----|
|----0-0---0-0---0---0-0---0-0---0---5-5---5-5---5----7-7----7-7---7---|
     * *   * *   *   * *   * *   *   * *   * *   *    * *    * *   *

|----------------------------------------------------------------------| 
|----------------------------------------------------------------------|
|----------------------------------------------------------------------|
|----------------------------------------------------------2-2h3-------| 
|--8-----8-----7---8-----8-----7---5-----5-----3---7-------------5-3---|
|----0-0---0-0---0---0-0---0-0---0---3-3---3-3---3---5-5-5-------------|
     * *   * *   *   * *   * *   *   * *   * *   *   * * *

  Verse II x4
|---------------------------------------------------------------------| 
|---------------------------------------------------------------------|
|---------------------------------------------------------------------|
|--3-5-3-0---------5-7-5-0--------------------------------------------| 
|--3-5-3-0---------5-7-5-0---------5p0-----7p0-----8p0-----10p0-8p0---|
|--3-5-3-0-0-0-0-0-5-7-5-0-0-0-0-0-----0-0-----0-0-----0-0------------|
           * * * *         * * * *     * *     * *     * *
|---------------------------------------------------------------------| 
|---------------------------------------------------------------------|
|---------------------------------------------------------------------|
|--3-5-3-0---------5-7-5-0--------------------------------------------| 
|--3-5-3-0---------5-7-5-0-------------5p0-----7p0-----8p0-10p0-8p0---|
|--3-5-3-0-0-0-0-0-5-7-5-0-0-0-0-0-0-0-----0-0-----0-0----------------|
           * * * *         * * * * * *     * *     * *    

  Verse III x2
|------------------------------------------------------------------------| 
|------------------------------------------------------------------------|
|------------------------------------------------------------------------|
|--3-5-3-0-----------------------------3-5-3-0---------------------------| 
|--3-5-3-0-----------------------------3-5-3-0---------3-5-3-0-5-7-5-0---|
|--3-5-3-0-0-0-0-0-0-0-0-0-0-0-0-0-0-0-3-5-3-0-0-0-0-0-3-5-3-0-5-7-5-0---|
           * * * * * * * * * * * * * *         * * * * * * * * * * * *

  Breakdown II
|-------------------------------------------------------------------------| 
|-------------------------------------------------------------------------|
|-------------------------------------------------------------------------|
|-----------------------------------------------------------7p0--5p0--3p0-| 
|-0-0-0-0---0--0-0-0--0-0-0-0--0-0-0-0---0--0-0-0--0-0-0-0----------------|
|-1-1-1-1---0--0-0-0--0-0-0-0--1-1-1-1---0--0-0-0--0-0-0-0-0----0----0----|
  * * * *   *  * * *  * * * *  * * * *   *  * * *  * * * * *    *    *

|--------------------------------------------------------------| 
|--------------------------------------------------------------|
|--------------------------------------------------------------|
|----------------------------------------------7p0--5p0--3p0---| 
|-0-0-0-0--0--0-0---0-0-0-0--0--0-0--0-0-0-0-------------------|
|-1-1-1-1--1--1-1---1-1-1-1--1--1-1--1-1-1-1-0-----0----0------|
  * * * *  *  * *   * * * *  *  * *  * * * * *     *    *

|----------------------------------------------------------------| 
|----------------------------------------------------------------|
|----------------------------------------------------------------|
|----------------------------------------------------------------| 
|-0-0-0-0--0--0-0---0-0-0-0--0000-0-0--0-0-0-0--0--0-0--0-0-0-0--|
|-0-0-0-0--0--0-0---0-0-0-0--0000-0-0--0-0-0-0--0--0-0--0-0-0-0--|
  * * * *  *  * *   * * * *  **** * *  * * * *  *  * *  * * * *

|---------------------| 
|---------------------|
|---------------------|  
|---7p0---5p0---3p0---| 
|---------------------|
|-0-----0-----0-------|  
  *     *     *



Repeat Verse I x4



|--------------------------------------------------------------------------|
|--------------------------------------------------------------------------|
|--------------------------------------------------------------------------|
|-7p0-0-5p0-0-3p0-5p0-0-3p0-0-2----0-7p0-0-5p0-0-3p0-5p0-0-3p0-0-2----0--0-|
|-------------------------------3--0-------------------------------3--0--0-|
|----------------------------------0----------------------------------0--0-|
                                                                         *


 "There's Blood In The Water"

                                                                           
Breakdown III
|--------------------------------------------------------------------------|
|--------------------------------------------------------------------------|
|--------------------------------------------------------------------------|
|--------------------------------------------------------5-------8p7p5p----|
|--0--0-0000-00--00-0-0-0--0000-00--0--0-0000-00-0h5h7h8---8p7p5--------8--|
|--0--0-0000-00--00-0-0-0--0000-00--0--0-0000-00---------------------------|
   *  * **** **  ** * * *  **** **  *  * **** **

|-----------| 
|-----------|
|-----------|
|-5---------|
|---8p7p5---|
|-----------|

|--------------------------------------------------------------------------|
|--------------------------------------------------------------------------|
|--------------------------------------------------------------------------|
|-------------------------------------------------------7"----8"-7"-10"-8"-|
|--0--0-0000-00--00-0-0-0--0000-00--0--0-0000-00-10"-8"----8"--------------|
|--0--0-0000-00--00-0-0-0--0000-00--0--0-0000-00---------------------------|
   *  * **** **  ** * * *  **** **  *  * **** **





Comments


Popular Parkway Drive tabs & chords
Mutiny Bass Tabs
Picture Perfect Pathetic Bass Tabs
Anasasis Xenophontis Drum Tabs
Anasis Xenophontis Tabs
Dark Days 1 Tabs
Horizons 1 Tabs
Pandora 3 Tabs
Romance Is Dead 2 Tabs
Set To Destroy Tabs
Unrest Tabs


Song lyrics



↑ Back to top | Tablatures and chords are parodies/interpretations of the original songs. You may use it for private study, scholarship, research or language learning purposes only
© 2014 AZChords.com Contact us | Privacy policy | DMCA | Add/correct tabs | Request tabs | Top 50 tabs