» » »

Paramore, Brick By Boring Brick Tabs (ver.4)

Artists:  A B C D E F G H I J K L M N O P Q R S T U V W X Y Z # 

Brick By Boring Brick Tabs (ver.4)

Paramore Tabs
 Rating:
3.7/5 (6 votes)
Brick By Boring Brick lessons Tabs too difficult? Try these video lessons and learn fast
                -------------------------------------------------------------------------------
			     PARAMORE - Brick By Boring Brick
-------------------------------------------------------------------------------

:READ!: 

Hey guys!
So here’s another one of my tabs (check out my other tabs too if you’d like)..
I decided to tab Paramore’s ‘Brick By Boring Brick’ this time, 
completely the right way..
I finally figured out all the chords, after hours and hours of practising
and watching live video’s of the song, but I think I got them all right!

So if you like it (or not, which I cant really imagine since the chords are right),
COMMENT me on this, and please also RATE the tab!


About the tab itself: I did only tab out the rhythm part of the song for now (being Josh’s part),
because I believe that other tabs already contain decent lead versions (Taylor’s part).
When I find the time, and when you guys request me for it, I’ll try to tab Taylor’s part too.
Also, the strumming patterns aren’t in the tab,
you should be able to figure those out yourself,by watching vids or so.)
I did try at some parts to make the strumming a bit more clear,
but the rest is up to yourself.

Well, before I’m writing up the whole page, let’s get to the actual tab:
thanks for taking the time to read all this info, and have fun with playing!


Tuning: Standard (Studio version)
       
For the Live version you will have to tune your guitar a half step down,
chords and ‘numbers’ stay the same

INTRO	

e|----------------------------------------------------|
B|----------------------------------------------------|
G|-11-11-11-11-11-11-11-11----------------------------|
D|-11-11-11-11-11-11-11-11----11-11-11-11-11-11-11-11-|
A|-9--9--9--9--9--9--9--9-(0)-x--x--x--x--x--x--x--x--|
E|------------------------(0)-9--9--9--9--10-10-10-10-|
							
e|-------------------------------------------------|
B|-------------------------------------------------|
G|-9--9--9--9--9--9--9--9--9--9--9--9--9--9--9--9--|
D|-11-11-11-11-11-11-11-11-11-11-11-11-11-11-11-11-| (whole riff 2x)
A|-0--0--0--0--0--0--0--0--0--0--0--0--0--0--0--0--|
E|-x--x--x--x--x--x--x--x--x--x--x--x--x--x--x--x--|

VERSE
(Comes in at 0.34 “…It’s all about the exposure…”)

e|---------------------------------------------------------------------|
B|---------------------------------------------------------------------|
G|-11--11--11--11---------------------9---9---9---9---9--9--9---9---9--|
D|-11--11--11--11--11-11-11--11--11---11--11--11--11--11-11-11--11--11-| (x2)
A|-9---9---9---9---x--x--x---x---x----0---0---0---0---0--0--0---0---0--|
E|-----------------9--9--9---10--10---x---x---x---x---x--x--x---x---x--|


PRE-CHORUS
(0.46: “Keep your feet on the ground, when your head’s in the clouds…”)

e|----0-----0------0-----0-----0-----0------0--------------------------|
B|----0-----0------0-----0-----0-----0------0--------------------------|
G|-9-----9-----11-----7-----9-----9-----11-----13-13-13-13-13-13-13-13-|
D|-9-----9-----11-----7-----9-----9-----11-----13-13-13-13-13-13-13-13-|
A|-7-----7-----9------5-----7-----7-----9------11-11-11-11-11-11-11-11-|
E|-7-----7-----9------5-----7-----7-----9------11-11-11-11-11-11-11-11-|

CHORUS
(0.58: “Well go get your shovel…”)

(It was very hard for me to write down the exact strumming pattern in the chorus,
so I tabbed out just the amount of times you’d have to strum the chords
when just strumming up-down-up-down etc.,in eighth notes/quavers.
The actual strumming pattern that Josh uses can be derived from live video’s)

The brackets around the 9’s are there because they are not necessary to be played.
When I myself play it, my index finger mutes the B string when playing a ‘bar’,
it’s not a problem if it does with yours too. It’s just what you prefer.

e|5-5-5-5-5-5-5-5-5-5-5-5-5-5-5-5--9--9--9--9--9--9--9--9--9--9--9--9--9--9--9--9-|
B|5-5-5-5-5-5-5-5-5-5-5-5-5-5-5-5-(9)(9)(9)(9)(9)(9)(9)(9)(9)(9)(9)(9)(9)(9)(9)(9)|
G|6-6-6-6-6-6-6-6-6-6-6-6-6-6-6-6--11-11-11-11-11-11-11-11-11-11-11-11-11-11-11-11|
D|7-7-7-7-7-7-7-7-7-7-7-7-7-7-7-7--11-11-11-11-11-11-11-11-11-11-11-11-11-11-11-11|
A|7-7-7-7-7-7-7-7-7-7-7-7-7-7-7-7--9--9--9--9--9--9--9--9--9--9--9--9--9--9--9--9-|
E|5-5-5-5-5-5-5-5-5-5-5-5-5-5-5-5--9--9--9--9--9--9--9--9--9--9--9--9--9--9--9--9-|

e|-0-0-0-0-0-0-0-0-0-0-0-0-0-0-0-0--0-0-0-0-0-0-0-0-0-0-0-0-0-0-0-0--|
B|-0-0-0-0-0-0-0-0-0-0-0-0-0-0-0-0--0-0-0-0-0-0-0-0-0-0-0-0-0-0-0-0--|
G|-2-2-2-2-2-2-2-2-2-2-2-2-2-2-2-2--1-1-1-1-1-1-1-1-1-1-1-1-1-1-1-1--| (2x)
D|-2-2-2-2-2-2-2-2-2-2-2-2-2-2-2-2--2-2-2-2-2-2-2-2-2-2-2-2-2-2-2-2--|
A|-0-0-0-0-0-0-0-0-0-0-0-0-0-0-0-0--2-2-2-2-2-2-2-2-2-2-2-2-2-2-2-2--|
E|-0-0-0-0-0-0-0-0-0-0-0-0-0-0-0-0--0-0-0-0-0-0-0-0-0-0-0-0-0-0-0-0--|

(at 1.24: after “Badapabadapapaha!”),main riff again:

e|----------------------------------------------------|
B|----------------------------------------------------|
G|-9--9--9--9--9--9--9--9--9--9--9--9--9--9--9--9--9--|
D|-11-11-11-11-11-11-11-11-11-11-11-11-11-11-11-11-11-|
A|-0--0--0--0--0--0--0--0--0--0--0--0--0--0--0--0--0--|
E|-x--x--x--x--x--x--x--x--x--x--x--x--x--x--x--x--x--|

e|----------------------------------------------------|
B|----------------------------------------------------|
G|-11-11-11-11-11-11-11-11----------------------------|
D|-11-11-11-11-11-11-11-11----11-11-11-11-11-11-11-11-|
A|-9--9--9--9--9--9--9--9-(0)-x--x--x--x--x--x--x--x--|
E|------------------------(0)-9--9--9--9--10-10-10-10-|
							
e|-------------------------------------------------|
B|-------------------------------------------------|
G|-9--9--9--9--9--9--9--9--9--9--9--9--9--9--9--9--|
D|-11-11-11-11-11-11-11-11-11-11-11-11-11-11-11-11-| 
A|-0--0--0--0--0--0--0--0--0--0--0--0--0--0--0--0--|
E|-x--x--x--x--x--x--x--x--x--x--x--x--x--x--x--x--|

VERSE

First some guitar feedback, then (1.44: “It was a trick, and the clock struck twelve…”
e|---------------------------------------------------------------------|
B|---------------------------------------------------------------------|
G|-11--11--11--11---------------------9---9---9---9---9--9--9---9---9--|
D|-11--11--11--11--11-11-11--11--11---11--11--11--11--11-11-11--11--11-| (x2)
A|-9---9---9---9---x--x--x---x---x----0---0---0---0---0--0--0---0---0--|
E|-----------------9--9--9---10--10---x---x---x---x---x--x--x---x---x--|


PRE-CHORUS
(1.55: “Keep your feet on the ground, when your head’s in the clouds…”)

e|----0-----0------0-----0-----0-----0------0--------------------------|
B|----0-----0------0-----0-----0-----0------0--------------------------|
G|-9-----9-----11-----7-----9-----9-----11-----13-13-13-13-13-13-13-13-|
D|-9-----9-----11-----7-----9-----9-----11-----13-13-13-13-13-13-13-13-|
A|-7-----7-----9------5-----7-----7-----9------11-11-11-11-11-11-11-11-|
E|-7-----7-----9------5-----7-----7-----9------11-11-11-11-11-11-11-11-|

CHORUS
(2.07: “Well go get your shovel…”)

(It was very hard for me to write down the exact strumming pattern in the chorus,
so I tabbed out just the amount of times you’d have to strum the chords
when just strumming up-down-up-down etc.,in eighth notes/quavers.
The actual strumming pattern that Josh uses can be derived from live video’s)

The brackets around the 9’s are there because they are not necessary to be played.
When I myself play it, my index finger mutes the B string when playing a ‘bar’,
it’s not a problem if it does with yours too. It’s just what you prefer.

e|5-5-5-5-5-5-5-5-5-5-5-5-5-5-5-5--9--9--9--9--9--9--9--9--9--9--9--9--9--9--9--9-|
B|5-5-5-5-5-5-5-5-5-5-5-5-5-5-5-5-(9)(9)(9)(9)(9)(9)(9)(9)(9)(9)(9)(9)(9)(9)(9)(9)|
G|6-6-6-6-6-6-6-6-6-6-6-6-6-6-6-6--11-11-11-11-11-11-11-11-11-11-11-11-11-11-11-11|
D|7-7-7-7-7-7-7-7-7-7-7-7-7-7-7-7--11-11-11-11-11-11-11-11-11-11-11-11-11-11-11-11|
A|7-7-7-7-7-7-7-7-7-7-7-7-7-7-7-7--9--9--9--9--9--9--9--9--9--9--9--9--9--9--9--9-|
E|5-5-5-5-5-5-5-5-5-5-5-5-5-5-5-5--9--9--9--9--9--9--9--9--9--9--9--9--9--9--9--9-|

e|-0-0-0-0-0-0-0-0-0-0-0-0-0-0-0-0--0-0-0-0-0-0-0-0-0-0-0-0-0-0-0-0-|
B|-0-0-0-0-0-0-0-0-0-0-0-0-0-0-0-0--0-0-0-0-0-0-0-0-0-0-0-0-0-0-0-0-|
G|-2-2-2-2-2-2-2-2-2-2-2-2-2-2-2-2--1-1-1-1-1-1-1-1-1-1-1-1-1-1-1-1-| (2x)
D|-2-2-2-2-2-2-2-2-2-2-2-2-2-2-2-2--2-2-2-2-2-2-2-2-2-2-2-2-2-2-2-2-|
A|-0-0-0-0-0-0-0-0-0-0-0-0-0-0-0-0--2-2-2-2-2-2-2-2-2-2-2-2-2-2-2-2-|
E|-0-0-0-0-0-0-0-0-0-0-0-0-0-0-0-0--0-0-0-0-0-0-0-0-0-0-0-0-0-0-0-0-|

BRIDGE
(2.30: “…Castle----, whoa----“)

e|-9--9--9--9--9--9--9--9--9--9--9--9--9--9--9--9--5-5-5-5-5-5-5-5-5-5-5-5-5-5-5-5|
B|-9--9--9--9--9--9--9--9--9--9--9--9--9--9--9--9--5-5-5-5-5-5-5-5-5-5-5-5-5-5-5-5|
G|-11-11-11-11-11-11-11-11-11-11-11-11-11-11-11-11-7-7-7-7-7-7-7-7-7-7-7-7-7-7-7-7|
D|-11-11-11-11-11-11-11-11-11-11-11-11-11-11-11-11-7-7-7-7-7-7-7-7-7-7-7-7-7-7-7-7|
A|-9--9--9--9--9--9--9--9--9--9--9--9--9--9--9--9--5-5-5-5-5-5-5-5-5-5-5-5-5-5-5-5|
E|-9--9--9--9--9--9--9--9--9--9--9--9--9--9--9--9--5-5-5-5-5-5-5-5-5-5-5-5-5-5-5-5|

e|-0-0-0-0-0-0-0-0-0-0-0-0-0-0-0-0--0-0-0-0-0-0-0-0-0-0-0-0-0-0-0-0-|
B|-0-0-0-0-0-0-0-0-0-0-0-0-0-0-0-0--0-0-0-0-0-0-0-0-0-0-0-0-0-0-0-0-|
G|-2-2-2-2-2-2-2-2-2-2-2-2-2-2-2-2--1-1-1-1-1-1-1-1-1-1-1-1-1-1-1-1-| 
D|-2-2-2-2-2-2-2-2-2-2-2-2-2-2-2-2--2-2-2-2-2-2-2-2-2-2-2-2-2-2-2-2-|
A|-0-0-0-0-0-0-0-0-0-0-0-0-0-0-0-0--2-2-2-2-2-2-2-2-2-2-2-2-2-2-2-2-|
E|-0-0-0-0-0-0-0-0-0-0-0-0-0-0-0-0--0-0-0-0-0-0-0-0-0-0-0-0-0-0-0-0-|


e|-9--9--9--9--9--9--9--9--9--9---9---9---9---5-5-5-5-5-5-5-5-5-5-5-5-5-5-5-5-|
B|-9--9--9--9--9--9--9--9--9--9---9---9---9---5-5-5-5-5-5-5-5-5-5-5-5-5-5-5-5-|
G|-11-11-11-11-11-11-11-11-11-11--11--11--11--7-7-7-7-7-7-7-7-7-7-7-7-7-7-7-7-|
D|-11-11-11-11-11-11-11-11-11-11--11--11--11--7-7-7-7-7-7-7-7-7-7-7-7-7-7-7-7-|
A|-9--9--9--9--9--9--9--9--9--9---9---9---9---5-5-5-5-5-5-5-5-5-5-5-5-5-5-5-5-|
E|-9--9--9--9--9--9--9--9--9--9---9---9---9---5-5-5-5-5-5-5-5-5-5-5-5-5-5-5-5-|




e|-0-0-0-0-0-0-0-0-0-0--0--0--0--0-0-0-0-0-0-0-0-0-0-0-0-0-0-0-0-|
B|-0-0-0-0-0-0-0-0-0-0--0--0--0--0-0-0-0-0-0-0-0-0-0-0-0-0-0-0-0-|
G|-2-2-2-2-2-2-2-2-2-2--2--2--2--1-1-1-1-1-1-1-1-1-1-1-1-1-1-1-1-| 
D|-2-2-2-2-2-2-2-2-2-2--2--2--2--2-2-2-2-2-2-2-2-2-2-2-2-2-2-2-2-|
A|-0-0-0-0-0-0-0-0-0-0--0--0--0--2-2-2-2-2-2-2-2-2-2-2-2-2-2-2-2-|
E|-0-0-0-0-0-0-0-0-0-0--0--0--0--0-0-0-0-0-0-0-0-0-0-0-0-0-0-0-0-|

(2.54: “Well if it’s not real…”)

e|-0----0----0----0----0------0----0----0----0-|
B|-0----0----0----0----0------0----0----0----0-|
G|-6----11---2----1----2------6----11---2----1-|
D|-7----11---2----2----2------7----11---2----2-|
A|-7----9----0----2----0------5----9----0----2-|
E|-5----9----0----0----0------5----9----0----0-|

FINAL CHORUS
(3.18: “Well go get your shovel…”)

(It was very hard for me to write down the exact strumming pattern in the chorus,
so I tabbed out just the amount of times you’d have to strum the chords
when just strumming up-down-up-down etc.,in eighth notes/quavers.
The actual strumming pattern that Josh uses can be derived from live video’s)

The brackets around the 9’s are there because they are not necessary to be played.
When I myself play it, my index finger mutes the B string when playing a ‘bar’,
it’s not a problem if it does with yours too. It’s just what you prefer.

e|5-5-5-5-5-5-5-5-5-5-5-5-5-5-5-5--9--9--9--9--9--9--9--9--9--9--9--9--9--9--9--9-|
B|5-5-5-5-5-5-5-5-5-5-5-5-5-5-5-5-(9)(9)(9)(9)(9)(9)(9)(9)(9)(9)(9)(9)(9)(9)(9)(9)|
G|6-6-6-6-6-6-6-6-6-6-6-6-6-6-6-6--11-11-11-11-11-11-11-11-11-11-11-11-11-11-11-11|
D|7-7-7-7-7-7-7-7-7-7-7-7-7-7-7-7--11-11-11-11-11-11-11-11-11-11-11-11-11-11-11-11|
A|7-7-7-7-7-7-7-7-7-7-7-7-7-7-7-7--9--9--9--9--9--9--9--9--9--9--9--9--9--9--9--9-|
E|5-5-5-5-5-5-5-5-5-5-5-5-5-5-5-5--9--9--9--9--9--9--9--9--9--9--9--9--9--9--9--9-|

e|-0-0-0-0-0-0-0-0-0-0-0-0-0-0-0-0--0-0-0-0-0-0-0-0-0-0-0-0-0-0-0-0-|
B|-0-0-0-0-0-0-0-0-0-0-0-0-0-0-0-0--0-0-0-0-0-0-0-0-0-0-0-0-0-0-0-0-|
G|-2-2-2-2-2-2-2-2-2-2-2-2-2-2-2-2--1-1-1-1-1-1-1-1-1-1-1-1-1-1-1-1-| (2x)
D|-2-2-2-2-2-2-2-2-2-2-2-2-2-2-2-2--2-2-2-2-2-2-2-2-2-2-2-2-2-2-2-2-|
A|-0-0-0-0-0-0-0-0-0-0-0-0-0-0-0-0--2-2-2-2-2-2-2-2-2-2-2-2-2-2-2-2-|
E|-0-0-0-0-0-0-0-0-0-0-0-0-0-0-0-0--0-0-0-0-0-0-0-0-0-0-0-0-0-0-0-0-|

Last time, play this directly after the E-maj. chord:

e|---------------|
B|---------------|
G|-11------------|
D|-11-(let ring)-|
A|-9-------------|
E|---------------|


OUTRO

(3.46: “badapapadabapaha…”)

(palm muted!)

e|----------------------------------------------------|
B|----------------------------------------------------|
G|-11-11-11-11-11-11-11-11----------------------------|
D|-11-11-11-11-11-11-11-11----11-11-11-11-11-11-11-11-|
A|-9--9--9--9--9--9--9--9-(0)-x--x--x--x--x--x--x--x--|
E|------------------------(0)-9--9--9--9--10-10-10-10-|
   .  .  .  .  .  .  .  .  .  .  .  .  .  .  .  .  . 
							
e|-------------------------------------------------|
B|-------------------------------------------------|
G|-9--9--9--9--9--9--9--9--9--9--9--9--9--9--9--9--|
D|-11-11-11-11-11-11-11-11-11-11-11-11-11-11-11-11-| (whole riff 3x palm muted)
A|-0--0--0--0--0--0--0--0--0--0--0--0--0--0--0--0--|
E|-x--x--x--x--x--x--x--x--x--x--x--x--x--x--x--x--|
   .  .  .  .  .  .  .  .  .  .  .  .  .  .  .  . 

e|----------------------------------------------------|
B|----------------------------------------------------|
G|-11-11-11-11-11-11-11-11----------------------------|
D|-11-11-11-11-11-11-11-11----11-11-11-11-11-11-11-11-|
A|-9--9--9--9--9--9--9--9-(0)-x--x--x--x--x--x--x--x--|
E|------------------------(0)-9--9--9--9--10-10-10-10-|

							
e|-------------------------------------------------|
B|-------------------------------------------------|
G|-9--9--9--9--9--9--9--9--9--9--9--9--9--9--9--9--|
D|-11-11-11-11-11-11-11-11-11-11-11-11-11-11-11-11-| (once more not palm muted)
A|-0--0--0--0--0--0--0--0--0--0--0--0--0--0--0--0--|
E|-x--x--x--x--x--x--x--x--x--x--x--x--x--x--x--x--|

| x  Mute note
| .  Palmmute note


That’s it! For any questions, COMMENT me or mail me
(address at top op the page), and DON’T FORGET TO RATE!!

Thanks.
===============================================================================
            
Submit corrections

comments powered by Disqus
↑ Back to top | Paramore Tabs for Brick By Boring Brick. Lyrics for acoustic guitar and electric guitar. Tablatures and chords are parodies/interpretations of the original songs. You may use it for private study, scholarship, research or language learning purposes only