» » »

Brick By Boring Brick Bass tabs (ver.1)

Artists:  A B C D E F G H I J K L M N O P Q R S T U V W X Y Z # 

Brick By Boring Brick Bass tabs (ver.1)

Paramore
Rating:
0/5 (0 votes)

Hard to play? Try these video lessons and learn fast.
                
Tuning: standard

Intro
G|999-777-6---------------------------------------|
D|-----------7-44444444---------------------------|
A|----------------------44445555-00000000-77755540|
E|------------------------------------------------|

G|-----------------------------------|
D|--------------------------7777779--|
A|--------44445555-0000000-7-------7-|
E|22222222---------------------------|

verse "she lived in a fairy tale"
G|----------------------------------------------------------------------|
D|44444444-----------------------------------------------------7777779--|
A|--------44445555-00000000-77755540---------44445555-0000000-7--------7|
E|-----------------------------------22222222---------------------------|

"it's all about the exposure"
G|-----------------------------------------------------------------|
D|-----------------------------------------------------------------|
A|--------44445555-00000000-77755540--------44445555-00000000000000|
E|22222222--------------------------22222222-----------------------|

pre-chorus "keep your feet on the ground"
G|----------------------------------------------|
D|2-2~---2-2~--4-4~-0-0~--2-2~--2-2~--4-4~--6-6~|
A|----------------------------------------------|
E|----------------------------------------------|

chorus "Go get your shovel"
G|---------------------------------------------------------------------|
D|------------2444-----------------------------------------------------|
A|000000000000-----4444444444444444------------------------------------|
E|----------------------------------2222222222222222-000000000000000000|x2

intro again:
G|-------------------------------------------------------------------6-----|
D|44444444-----------------------------------------------------97979---9-7-|
A|---------44445555-00000000-77755540--------44445555-00000000-------------|
E|-----------------------------------22222222------------------------------|

verse "so one day he found her crying"
G|---------------------------------------------------------------------|
D|44444444-----------------------------------------------------7777779-|
A|--------44445555-00000000-77755540---------44445555-0000000-7-------7|
E|-----------------------------------22222222--------------------------|

"but it was a trick"
G|-----------------------------------------------------------------|
D|-----------------------------------------------------------------|
A|--------44445555-00000000-77755540--------44445555-00000000000000|
E|22222222--------------------------22222222-----------------------|

pre-chorus "keep your feet on the ground"
G|----------------------------------------------|
D|2-2~---2-2~--4-4~-0-0~--2-2~--2-2~--4-4~--6-6~|
A|----------------------------------------------|
E|----------------------------------------------|

chorus "Go get your shovel"
G|-------------------------------------------------------------------|
D|------------2444-----------------------------------------------2222|
A|000000000000-----4444444444444444----------------------------------|
E|----------------------------------2222222222222222-000000000000----|

G|---------------------------------------------------------------------|
D|------------2444-----------------------------------------------------|
A|000000000000-----4444444444444444------------------------------------|
E|----------------------------------2222222222222222-000000000000000000|

"castle, whoa whoa oh..."
G|------------------------------------------------------------------------|
D|--------------------------------------2---2------2---2---222222222222222|
A|222222222222222222-5555555555555555-00-00--00-00---00--00---------------|
E|------------------------------------------------------------------------|

G|---------------------------------------------------------------------|
D|----------------------------------------------------22222222222222222|
A|22222222222-2-2-2-5555555555555555-00000000000-0-0-0-----------------|
E|---------------------------------------------------------------------|

"if it's not real you can't hold it.."
G|------------------------------------------------------------------|
D|------------------------------------------------------------------|
A|0000000000000002-444444444444444----------------------------------|
E|--------------------------------2222222222222222-0000000000000000-|

G|----------------------------------------------------|
D|----------------------------------------------------|
A|0000000000000002-444444444444444--------------------|
E|--------------------------------2222222222222222-0~-|

chorus "Go get your shovel"
G|-------------------------------------------------------------------|
D|------------2444-----------------------------------------------2222|
A|000000000000-----4444444444444444----------------------------------|
E|----------------------------------2222222222222222-000000000000----|x2

outro
G|-----------------------------------------------------------------|
D|44444444---------------------------------------------------------|
A|---------44445555-0000000000000000----------44445555-00000000000-|
E|-----------------------------------22222222----------------------|
            
Hard to play? Try these video lessons and learn fast. | Correct




comments powered by Disqus
↑ Back to top | Tablatures and chords are parodies/interpretations of the original songs. You may use it for private study, scholarship, research or language learning purposes only