» » »

Brick By Boring Brick Tabs (ver.3)

Artists:  A B C D E F G H I J K L M N O P Q R S T U V W X Y Z # 

Brick By Boring Brick Tabs (ver.3)

Paramore
Rating:
3.2/5 (40 votes)

Tabs too difficult? Try these video lessons and learn fast.
                

 

 Tuning: drop C#



 - Intro -

 Rhythm
 d#|------------------------------------|
 A#|------------------------------------|
 F#|---12-------------------------------|
 C#|---12-x8---12------13------8--------| 4x
 G#|---10------12-x4---13-x4---8-x16----|
 C#|-----------12------13------8--------|

 Lead
 d#|--------------------------------------------------------------------------------------------|
 A#|--------------------------------------------------------------------------------------------|
 F#|---------------12-10-7~---7b8r7b8r7b8r7~-------------------12-10-7~---7b8r7b8r7b8r7b8r7~----|
 C#|--------8~--------------------------------------------8~------------------------------------|
 G#|---8h10------------------------------------------8h10---------------------------------------|
 C#|--------------------------------------------------------------------------------------------|


 - Verse -

 Rhythm
 d#|------------------------------------|
 A#|------------------------------------|
 F#|---12-------7-------8-------3-------| 2x
 C#|---12-x4----7-x2----8-x2----3-x8----|
 G#|---10-------5-------6-------1-------|
 C#|------------------------------------|

 Lead
 d#|---------------------|
 A#|---------------------|
 F#|----------12-10-7~---| 2x
 C#|---------------------|
 G#|---8h10--------------|
 C#|---------------------|


 - Pre-Chorus -   [CLEAN]

 Rhythm
 d#|-------------------------------------------------------|
 A#|-------------------------------------------------------|
 F#|---10------12------8-----------10------12~--/--10~-----|
 C#|---10-x6---12-x3---8-x3--------10-x6---12~--/--10~-----|
 G#|---8-------10------6-----------8-------10~--/--8-~-----|
 C#|-------------------------------------------------------|

 Lead
 d#|------------------------------------------------------|
 A#|------------------------------------------------------|
 F#|-----10---10----10---10---------10---10-----10--------|
 C#|-----------------------------------------8-----10~----|
 G#|---8----8----10----6----------8----8------------------|
 C#|------------------------------------------------------|


 - Chorus -

 Rhythm
 d#|--------------------------------------|
 A#|--------------------------------------|
 F#|---3-------7-------12-------10--------|  2x
 C#|---3-x16---7-x16---12-x16---10-x16----|
 G#|---1-------5-------10-------8---------|
 C#|--------------------------------------|

 Lead
 d#|---------------------------------------------------------------------------------------|
 A#|----------11-10----------------11-10~--------------------------------------------------|
 F#|----------------10~--------------------------------------------------------------------|  2x
 C#|---8h10~----------------8h10~--------------8p7h8-10-----8p7h8-10-----12-10----12-10----|
 G#|---------------------------------------------------------------------------------------|
 C#|---------------------------------------------------------------------------------------|


 - Intro -

 Rhythm
 d#|----------------------------------------------------|
 A#|----------------------------------------------------|
 F#|-------------12-------------------------------12~---|
 C#|---8---------12-x8---12------13------8--------12~---|
 G#|---8-x16-----10------12-x4---13-x4---8-x16----10~---|
 C#|---8-----------------12------13------8--------------|

 Lead
 d#|-----------------------------------------------------------------------------------|
 A#|-----------------------------------------------------------------------------------|
 F#|---7b8r7b8r7b8r7b8r7b8r7b8r7~-------------------12-10-7~-----7b8r7b8r7b8r7b8r7~----|
 C#|-----------------------------------------8~----------------------------------------|
 G#|------------------------------------8h10-------------------------------------------|
 C#|-----------------------------------------------------------------------------------|


 - verse -

 - Pre-chorus -

 - chorus -


 - Bridge -

 Rhythm 
 d#|-------------------------------------|         
 A#|-------------------------------------|         
 F#|---5-------8-------3-------10--------| 2x
 C#|---5-x16---8-x16---3-x16---10-x16----| 
 G#|---3-------6-------1-------8---------|
 C#|-------------------------------------|

 Lead
 d#|------------------------------------------------------------------------------|
 A#|------------------------------------------------------------------------------|
 F#|---12------7------5---------8------15------14---------10-------7------5-------|  2x
 C#|---x--x3---x-x3---x-x10-----x-x3---x--x3---x--x10-----x--x16---x-x8---x-x8----|
 G#|---10------5------3---------6------13------12---------8--------5------3-------|
 C#|------------------------------------------------------------------------------|

                - Clean Part -
 Rhythm
 d#|----------------------------|
 A#|----------------------------|
 F#|---3~----7~----------10~----| 2x
 C#|---3~----7~----5~----10~----|
 G#|---1~----5~----5~----8-~----|
 C#|---------------5~-----------|


- Chorus -

Rhythm
 d#|--------------------------------------|       ---------|
 A#|--------------------------------------|       ---------|
 F#|---3-------7-------12-------10--------|  2x   ---12~---|
 C#|---3-x16---7-x16---12-x16---10-x16----|       ---12~---|
 G#|---1-------5-------10-------8---------|       ---10~---|
 C#|--------------------------------------|       ---------|

 Lead
 d#|-------------------------------------------------------------------------------------------|
 A#|----------11-10----------------11-10~------------------------------------------------------|
 F#|----------------10~------------------------------------------------------------------------|2x
 C#|---8h10~----------------8h10~--------------8p7h8-10-----8p7h8-10-----12-10----12-10----12~-|
 G#|-------------------------------------------------------------------------------------------|
 C#|-------------------------------------------------------------------------------------------|



 - Outro -

 Rhythm
 d#|------------------------------------|
 A#|------------------------------------|
 F#|---12-------------------------------|
 C#|---12-x8---12------13------8--------| 4x
 G#|---10------12-x4---13-x4---8-x16----|
 C#|-----------12------13------8--------|
       .       .       .       .

 Lead
 d#|---------------------------------------------------------------------|
 A#|---------------------------------------------------------------------|
 F#|---7~---7~---7b8r7~-------------7b8r7b8r7b8r7b8r7b8r7b8r7b8r7b8r~----|
 C#|---------------------------------------------------------------------|
 G#|---------------------------------------------------------------------|
 C#|---------------------------------------------------------------------|
                                    ^               ^
                                    pick string     pick string

   THE END

   ~ = vibrato
   b = bend
   r = return (with a bend)
   h = hammer on
   p = pull off
   . = palm mute
   x = mute string
            
Tabs too difficult? Try these video lessons and learn fast.




comments powered by Disqus
↑ Back to top | Tablatures and chords are parodies/interpretations of the original songs. You may use it for private study, scholarship, research or language learning purposes only